PrimaNota.ru - самый крупный в мире бесплатный архив песенных текстов, аккордов, табулатур и нот


Madeon - La Lune - аккорды и текст, видео

Регистрация Запомнить меня
Войти через:  Facebook Google Twitter Vk Yandex Mail.ru

Madeon - La Lune - аккорды и текст, видео

Печатать
Просмотров: 174
Уроки эстрадного вокала в Санкт-Петербурге
Авторы: Dan Smith, Hugo Pierre Leclercq

La Lune
Madeon
Madeon -  La Lune  (feat. Dan Smith)
Capo 2nd 

Intro  G    |    |    |    ||

Stanza 1
Em7              G/B              Bm       Cadd9  D
 Sometimes these memories pull us under
G             Bm               Cadd9   G/B  Cadd9  D
 We get lost talking, days come by
Em7            G/B          Bm    Cadd9      D
 But we're not getting any younger; now it feels like
 Em7             Bm               Cadd9   G/B  Cadd9  D
 Real life has dragged us in it's time

        Am7               D                Em7        Bm
 So we stay awake like we always do and we try to recreate
          Cadd9                      Am7             Em7              N.C.
 And then nothing's changed when I'm next to you it doesn't feel the same
          
Interlude
Cadd9             |D             |Bm               |Cadd9          |
-17-16------------|--------------|-----------------|---------------|
---------------17-|--------------|19-17-----17-----|---------------|
-------16--18-----|18\-----------|-----------------|---------------|
------------------|--------------|------18-----/18-|16\------------|
------------------|--------------|-----------------|---------------|
------------------|--------------|-----------------|---------------|

Cadd9             |D             |Bm               |Am7    G/B
-17-16------------|--------------|-----------------|---------------|
---------------17-|--------------|19-17-----17-----|---------------|
-------16--18-----|18\-----------|--------16-------|---------------|
------------------|--------------|------18-----/18-|16\------------|
------------------|--------------|-----------------|---------------|
------------------|--------------|-----------------|---------------|


Stanza 2
Cadd9               Em7                  D                 A/C#
 I would never change what our past is written in our bones it's who we are
Cadd9               Em7                    D                 A/C#
 I just can't control where my mind goes when it goes too far

       Cadd9              D                Em7       A/C# 
 So we stay awake like we always do and we try to recreate
          Cadd9                       D              Em7             N.C.
 And then nothing's changed when I'm next to you it doesn't feel the same


Interlude
Cadd9             |D             |Bm               |Cadd9          |
-17-16------------|--------------|-----------------|---------------|
---------------17-|--------------|19-17-----17-----|---------------|
-------16--18-----|18\-----------|-----------------|---------------|
------------------|--------------|------18-----/18-|16\------------|
------------------|--------------|-----------------|---------------|
------------------|--------------|-----------------|---------------|

Cadd9             |D             |Bm               |Cadd9
-17-16------------|--------------|-----------------|---------------|
---------------17-|--------------|19-17-----17-----|---------------|
-------16--18-----|18\-----------|--------16-------|---------------|
------------------|--------------|------18-----/18-|16\------------|
------------------|--------------|-----------------|---------------|
------------------|--------------|-----------------|---------------|
Cadd9             |D             |Bm               |Cadd9          |
-17-16------------|--------------|-----------------|---------------|
---------------17-|--------------|19-17-----17-----|---------------|
-------16--18-----|18\-----------|-----------------|---------------|
------------------|--------------|------18-----/18-|16\------------|
------------------|--------------|-----------------|---------------|
------------------|--------------|-----------------|---------------|

Cadd9             |D             |Em7    |Em7  D   |Cadd9 G/B |Am7  D  |Em7    ||
-17-16------------|--------------|
---------------17-|--------------|
-------16--18-----|18\-----------|
------------------|--------------|
------------------|--------------|
------------------|--------------|

Stanza 3
  Cadd9         D              Em7             G/B
 Doesn't matter if we change, doesn't matter at all
 Cadd9             D                Em7              G/B
 Don't you worry about me, friend, don't you worry at all
  Cadd9         D              Em7             G/B
 Doesn't matter if we change, doesn't matter at all
 Cadd9             D                Em7                   N.C.
 Don't you worry about me, friend, don't you worry if it doesn't feel the same

Interlude
 Cadd9       |D           |Em7         |G/B         |
---------12--|-------12-9-|--------12--|-------12-9-|| (cont. X3.5)
----9-10-----|--9-10------|---9-10-----|--9-10------|
-11--------11|------------|11--------11|------------|
-------------|------------|------------|------------|
-------------|------------|------------|------------|
-------------|------------|------------|------------|

Cadd9    |D       |Em7     |Em7    N.C.     
                        It doesn't feel the same          
Cadd9   D   Em7   G/B             Cadd9   D   Em7   
              It doesn't feel the same            (It doesn't feel the same)

Outro
Cadd9   D   Bm   Cadd9         Cadd9   D   Bm   Cadd9
                     (Feel the same)                 (Feel the same)
Cadd9   D   Bm   Cadd9         Cadd9   D   Bm   Cadd9
                                           (rit..)
Добавлено: 20.09.2015
Другие материалы по этой песне:
  • Аккорды и текст

Страница создана 20.09.2015
http://primanota.ru/madeon/la-lune-chords.htm
Привет, Гость.
Предлагаем пройти революционный курс по гитаре.
Подарок от PrimaNota.Ru, забирай!