PrimaNota.ru - самый крупный в мире бесплатный архив песенных текстов, аккордов, табулатур и нот


Mademoiselle K - Ca Me Vexe - текст песни, таба, видео

Регистрация Запомнить меня
Войти через:  Facebook Google Twitter Vk Yandex Mail.ru

Mademoiselle K - Ca Me Vexe - текст песни, таба, видео

Печатать
Просмотров: 335
Авторы музыки: Katerine Gierak
Авторы текста: Katerine Gierak
Mademoiselle K

"ça me vexe" (2006)

Tablature par Romain
Si vous avez des rectifications, mailez-moi à spring84@hotmail.fr

Couplet 1 (de 0 à 20 secondes)

E|--------------------|
B|-------3------------|
G|----4-----4--5~-----|  X3
D|--------------------|
A|--------------------|
E|--------------------|

puis
E|-------3------------|
B|----5-----5--7~-----|
G|--------------------|  X1
D|--------------------|
A|--------------------|
E|--------------------|

Couplet 2 (de 0:20 à 0:35)

Accords de la Rythmique :

E|----0-----3-----0------0------------|
B|----0-----0-----1------1------------|
G|----0-----0-----2------0------------|
D|----2-----0-----2------2------------|
A|----2-----2-----0------3------------|
E|----0-----3~------------------------|

      Em    G     Am     C

Jouez en palm-mute.

Pré-refrain (de 0:36 à 0:56)

Rythmique +
deuxième guitare :
E|--------------------------------------|
B|--------------------------------------|
G|--------------------------------------|    X3
D|--------------------------------------|
A|-----------------0~-----1~------------|
E|----0~----3~--------------------------|

Couplet 3 (de 0:57 à 1:10)

Les deux guitares :
E|-----7----7----77-----12/-------------|
B|-----8----8----88-----12/-------------|
G|-----9----9----99-----12/-------------|   X4
D|--------------------------------------|
A|--------------------------------------|
E|--------------------------------------|

Couplet 4 (de 1:11 à 1:31)

Rythmique (montée progressive en intensité du son)

Refrain (de 1:32 à 1:44)

Rythmique +
Guitare 2 :
E|---------------------------------------------|
B|---------------------------------------------|
G|------9~------12/7~------9/5~------4/5~------|   X2
D|---------------------------------------------|
A|------7~------10/5~------7/3~------2/3~------|
E|---------------------------------------------|

Couplet 5 (de 1:45 à 2:05)

Les deux guitares :
E|--------7-----------7--------|-------7-----------7-------------|
B|--------8-----------8---10---|-------8-----------8---10--------|
G|----9------9-----9------9----|----7-----7-----7------7---------|   X4
D|-----------------------------|---------------------------------|
A|-----------------------------|---------------------------------|
E|-----------------------------|---------------------------------|

puis
E|--------7-----------7--------|-------7-----------7-------------|
B|--------8-----------8---10---|-------8-----------8---10~--11~--|
G|----9------9-----9------9----|----7-----7-----7----------------|   X1
D|-----------------------------|---------------------------------|
A|-----------------------------|---------------------------------|
E|-----------------------------|---------------------------------|

Couplet 6 (de 2:06 à 2:18)

Les deux guitares :
E|------------------------------------------|
B|------------------------------------------|
G|------------------------------------------|   X2
D|------------------------------------------|
A|-----------------0~-----1~----------------|
E|----0~----3~------------------------------|

Refrain 2 (de 2:18 à 2:30)

Rythmique +
Guitare 2 :
E|---------------------------------------------|
B|---------------------------------------------|
G|------9~------12/7~------9/5~------4/5~------|    X2
D|---------------------------------------------|
A|------7~------10/5~------7/3~------2/3~------|
E|---------------------------------------------|

Solo (de 2:31 à 2:50)
E|----------------------------------------------------------------------|
B|--------7-8-10-8-7-8------------------------7-8-10-8-7-8--/10--8---7--|
G|-----9---------------9---7/9---7/9-------9----------------------------|  X2
D|----------------------------------------------------------------------|
A|----------------------------------------------------------------------|
E|----------------------------------------------------------------------|

après je sais pas, à vous d'improviser dans ces notes là

Refrain 3 (de 2:51 à 3:05)

Rythmique +
Guitare 2 :
E|----------------------------------------------------------------------|
B|----------------------------------------------------------------------|
G|---99999999--1111111111111111--1212121212121212--1414141414141414-----|   X2
D|----------------------------------------------------------------------|
A|---77777777---9-9-9-9-9-9-9-9--1010101010101010--1212121212121212-----|
E|----------------------------------------------------------------------|

Outro (de 3:05 à 3:29)

E|-------------------0~-------------------0~------------|
B|-------------------1~------------------0~-------------|
G|-------------------2~-----------------0~--------------|    X1
D|----22-----55------2~----------------2~---------------|
A|----22-----55------0~------1b-------2~----------------|
E|----00-----33----------------------0~-----------------|


voilà c'est fini, bonne chance !!
Добавлено: 29.07.2012
Другие материалы по этой песне:

Страница создана 01.04.2012
http://primanota.ru/mademoiselle-k/ca-me-vexe-chords.htm
Привет, Гость.
Предлагаем пройти революционный курс по гитаре.
Подарок от PrimaNota.Ru, забирай!