PrimaNota.ru - самый крупный в мире бесплатный архив песенных текстов, аккордов, табулатур и нот


Madeleine Peyroux - Instead - текст песни, таба, видео

Регистрация Запомнить меня
Войти через:  Facebook Google Twitter Vk Yandex Mail.ru

Madeleine Peyroux - Instead - текст песни, таба, видео

Печатать
Просмотров: 81
"Instead" by Madeleine Peyroux

Swing 4/4
Moderato (97BPM) 

        Ab            F7             Bb7            Eb7
E|--------------|--------------|--------------|--------------|
B|--4--4--4--4--|--6--6--6--6--|--6--6--6--6--|--4--4--4--4--|
G|--5--5--5--5--|--8--8--8--8--|--7--7--7--7--|--6--6--6--6--|
D|--6--6--6--6--|--7--7--7--7--|--6--6--6--6--|--5--5--5--5--|
A|--6--6--6--6--|--8--8--8--8--|--------------|--6--6--6--6--|
E|--------------|--------------|--------------|--------------| (2x)

Walk Down: (1x)

     Ab   G  Gb        F             Bb7             Eb7
E|--4--4--3--2--|--1--1--1--1--|--1--1--1--1--|--------------|
B|--4--4--3--2--|--1--1--1--1--|--3--3--3--3--|--4--4--4--4--|
G|--5--5--4--3--|--2--2--2--2--|--1--1--1--1--|--6--6--6--6--|
D|--6--6--5--4--|--3--3--3--3--|--3--3--3--3--|--5--5--5--5--|
A|--6--6--5--4--|--3--3--3--3--|--1--1--1--1--|--6--6--6--6--|
E|--------------|--------------|--------------|--------------|

        Ab            F7             Bb7            Eb7
E|--------------|--------------|--------------|--------------|
B|--4--4--4--4--|--6--6--6--6--|--6--6--6--6--|--4--4--4--4--|
G|--5--5--5--5--|--8--8--8--8--|--7--7--7--7--|--6--6--6--6--|
D|--6--6--6--6--|--7--7--7--7--|--6--6--6--6--|--5--5--5--5--|
A|--6--6--6--6--|--8--8--8--8--|--------------|--6--6--6--6--|
E|--------------|--------------|--------------|--------------| (1x)

Chorus:
        C7             F              C7            F
E|--------------|--1--1--1--1--|--------------|--1-1-3-1-4-1-3-1-|
B|--1--1--1--1--|--1--1--1--1--|--1--1--1--1--|--1-1-1-1-1-1-1-1-|
G|--3--3--3--3--|--2--2--2--2--|--3--3--3--3--|--2-2-2-2-2-2-2-2-|
D|--2--2--2--2--|--3--3--3--3--|--2--2--2--2--|--3-3-x-x-x-x-x-x-|
A|--3--3--3--3--|--3--3--3--3--|--3--3--3--3--|--3-3-3-3-3-3-3-3-|
E|--------------|--------------|--------------|------------------|

      Bb7              Eb7           Bb7       Eb7 Db D Eb
E|--------------|--------------|--------------|------------|
B|--3--3--3--3--|--4--4--4--4--|--3--3--3--3--|--4-6--7-8--|
G|--1--1--1--1--|--6--6--6--6--|--1--1--1--1--|--6-6--7-8--|
D|--3--3--3--3--|--5--5--5--5--|--3--3--3--3--|--5-6--7-8--|
A|--1--1--1--1--|--6--6--6--6--|--1--1--1--1--|--6-8--9-10-|
E|--------------|--------------|--------------|------------|


E|--------------|---------------------|
B|--------------|---------------------|
G|--------------|---------------------|
D|--8--7--6--5--|---------------------|
A|--10-9--8--6--|-6-6-----------------|
E|--------------|------9-9--8-8--6-6--| Back to Verse/Intro Chords


Instrumental Melody: 

(1,000 diff ways to play this w/ or w/out slide)

E|--------------------|---------------------------|
B|------4-----4/6-----|---------------------------|
G|--/5-----5-------5--|-/5-/5-3--/5-/5------------|
D|--------------------|----------------------3-6--|
A|--------------------|-----------------6--6------|
E|--------------------|---------------------------|

E|-----------------------|------------------------|
B|------4-----4--/8-7-6--|--9-6--9-9--6/4--6p4----|
G|--/5-----5-------------|----------------------5-|
D|-----------------------|------------------------|
A|-----------------------|------------------------|
E|-----------------------|------------------------|

E|----------------------|
B|--6--4--6-------------|
G|-----------5\3-----1--|
D|----------------1-----|
A|----------------------|
E|----------------------|
      Ab           F7         Bb7            Eb7
Instead of feelin' bad, be glad you've got somewhere to go
Instead of feelin' sad, be happy you're not all alone
Instead of feelin' low, get high on everything that you love
Instead of wastin' time, feel good 'bout what you're dreamin' of.
      C7                       F            
Instead of tryin' to win something you never understood
Just play the game you know, eventually you'll love her good
      Bb7                      Eb7
It's silly to pretend that you have something you don't own
      Bb7                    Walk up
Just let her be your woman and you'll be her man:

Instead of feelin' broke, buck up and get yourself in the black
Instead of losin' hope, touch up the things that feel out of whack
Instead of bein' old, be young because you know you are
Instead of feelin' cold, let sunshine into your heart.

Instead of acting crazy chasin' things that make you mad
Keep your heart ahead, it'll lead you back to what you have
With every step you're closer to the place you need to be
It's up to you to let her love you sweetly:

Instead of feelin' bad be glad you've got someone to love
Instead of feelin' sad, be happy there's a god above
Instead of feelin' low, remember you're never on your own
Instead of feelin sad, be happy that she's there at home

       Bb7       Eb7         Ab
She's waitin' for you by the phone
       Bb7       Eb7         Ab
So be glad that she is all your own


Jam on A and B Section

Добавлено: 02.05.2016
Вам также может быть интересно:
Другие материалы по этой песне:
  • Аккорды и текст

Страница создана 16.01.2014
http://primanota.ru/madeleine-peyroux/instead-chords.htm
Привет, Гость.
Предлагаем пройти революционный курс по гитаре.
Подарок от PrimaNota.Ru, забирай!