PrimaNota.ru - самый крупный в мире бесплатный архив песенных текстов, аккордов, табулатур и нот


Madeleine Peyroux - Careless Love - текст песни, бас-таба, видео

Регистрация Запомнить меня
Войти через:  Facebook Google Twitter Vk Yandex Mail.ru

Madeleine Peyroux - Careless Love - текст песни, бас-таба, видео

Печатать
Просмотров: 68
Авторы: Martha Koenig, William Christopher Handy, Spencer Williams, [traditional]

Madeleine Peyroux
Careless Love

Bass Tabs 
Tuning : EADG                                           
Tempo : 108 bpm                                                                  
Key signature: C+ (C sharp) 

INTRO: 00:01 instrumental (Drums / Bass / Guitar)
    C+            G+             C+            C+
G-|----------3g-|-------------||----------3g-|----------3g-|-
D-|----3-4-6----|----------3g-||----3-4-6----|----3-4-6----|-
A-|-4r----------|----3-4-6----||-4r----------|-4r----------|-
E-|-------------|-4r----------||-------------|-------------|-       
    C+             C+            G+            G+
G-|----------3g-|----------3g-||-------------|-------------|-
D-|----3-4-6----|----3-4-6----||----------3g-|----------3g-|-
A-|-4r----------|-4r----------||----3-4-6----|----3-4-6----|-
E-|-------------|-------------||-4r----------|-4r----------|-
   C+             C+              F                      
G-|----------3g-|----------3g-||---------------------------|-
D-|----3-4-6----|----3-4-6----||-----------1-2-4--1--------|-
A-|-4r----------|-4r----------||----1-2-4------------4--2--|-
E-|-------------|-------------||-2r------------------------|-
    C+            G+            C+             C+
G-|----------3g-|-------------||----------3g-|----------3g-|-
D-|----3-4-6----|----------3g-||----3-4-6----|----3-4-6----|-
A-|-4r----------|----3-4-6----||-4r----------|-4r----------|-
E-|-------------|-4r----------||-------------|-------------|-


VERSE(1): 00:37
    C+            G+             C+            C+
G-|----------3g-|-------------||----------3g-|----6-3------|-
D-|----3-4-6----|----------3g-||----3-4-6----|--------6-3g-|-
A-|-4r----------|----3-4-6----||-4r----------|-4r----------|-
E-|-------------|-4r----------||-------------|-------------|-  
Love, oh love, oh careless love,
    C+            C+              G+           G+
G-|----------3g-|----------3g-||-------------|-------------|-
D-|----3-4-6----|----3-4-6----||----------3g-|----6-3------|-
A-|-4r----------|-4r----------||----3-4-6----|--------6-3g-|-
E-|-------------|-------------||-4r----------|-4r----------|-
You've fly though my head like wine
    C+            C+             F                        
G-|----------3g-|----6-3------||---------------------------|-
D-|----3-4-6----|--------6-3g-||-----------1-2-4--1--------|-
A-|-4r----------|-4r----------||----1-2-4------------4--2--|-
E-|-------------|-------------||-2r------------------------|-
You've wrecked the life of many a poor girl
    C+            G+             C+            C+
G-|----------3g-|-------------||----------3g-|----6-3------|-
D-|----3-4-6----|----------3g-||----3-4-6----|--------6-3g-|-
A-|-4r----------|----3-4-6----||-4r----------|-4r----------|-
E-|-------------|-4r----------||-------------|-------------|-  
And you nearly spoiled this life of mine


VERSE(2): 01:12 
    C+            G+             C+            C+
G-|----------3g-|-------------||----------3g-|----------3g-|-
D-|----3-4-6----|----------3g-||----3-4-6----|----3-4-6----|-
A-|-4r----------|----3-4-6----||-4r----------|-4r----------|-
E-|-------------|-4r----------||-------------|-------------|-       
Love, oh love, oh careless love,
    C+             C+            G+            G+
G-|----------3g-|----------3g-||-------------|-------------|-
D-|----3-4-6----|----3-4-6----||----------3g-|----------3g-|-
A-|-4r----------|-4r----------||----3-4-6----|----3-4-6----|-
E-|-------------|-------------||-4r----------|-4r----------|-
In your clutches of desire
   C+             C+              F                      
G-|----------3g-|----------3g-||---------------------------|-
D-|----3-4-6----|----3-4-6----||-----------1-2-4--1--------|-
A-|-4r----------|-4r----------||----1-2-4------------4--2--|-
E-|-------------|-------------||-2r------------------------|-
You've made me break a many true vow
    C+            G+            C+             C+
G-|----------3g-|-------------||----------3g-|----------3g-|-
D-|----3-4-6----|----------3g-||----3-4-6----|----3-4-6----|-
A-|-4r----------|----3-4-6----||-4r----------|-4r----------|-
E-|-------------|-4r----------||-------------|-------------|-
Then you set my very soul on fire


VERSE(3): 01:48 [Play like verse 1]

Love, oh love, oh careless love,
All my happiness bereft
Cause you've filled my heart with weary old blues
Now I'm walkin' talkin' to myself

VERSE(4): 02:23  [Play like verse 2]

Love, oh love, oh careless love,
Trusted you now it's too late
You've made me throw my old friend down
That's why I sing this song of hate


VERSE(5): 02:58  [Play like verse 1]

Love, oh love, oh careless love,
Night and day I weep and moan
You brought the wrong man into this life of mine
For my sins till judgement I'll atone
        

Outro: 03:34  End on C sharp WITH THE 3 FISRT BARS :   C+ / G+ /  C+  
G-|----------3g-|-------------||----------3g-|-------------|-
D-|----3-4-6----|----------3g-||----3-4-6----|-------------|-
A-|-4r----------|----3-4-6----||-4r----------|-4r----------|-
E-|-------------|-4r----------||-------------|-------------|-
           
Добавлено: 02.05.2016
Другие материалы по этой песне:
  • Аккорды и текст

Страница создана 08.06.2012
http://primanota.ru/madeleine-peyroux/careless-love-chords.htm
Привет, Гость.
Предлагаем пройти революционный курс по гитаре.
Подарок от PrimaNota.Ru, забирай!