PrimaNota.ru - самый крупный в мире бесплатный архив песенных текстов, аккордов, табулатур и нот


Made Out Of Babies - Stranger - таба, видео

Регистрация Запомнить меня
Войти через:  Facebook Google Twitter Vk Yandex Mail.ru

Made Out Of Babies - Stranger - таба, видео

Печатать
Просмотров: 107
MADE OUT OF BABIES

STRANGER

tabbed by dan (yellowledbetter_69@hotmail.co.uk)

DROP-D TUNING

(I think delay is used here)
|--------------------|--------------------------------|
|--------------------|--------------------------------|
|--------------6--6--|--6-------6--6---6-------6--6---|
|-------8---8--------|----8---8----------8---8--------|
|---8-8---8----------|------8--------------8----------|
|--------------------|--------------------------------|
intro                  this part is also first part of verse

|------------------------|
|------------------------|
|----2----------3--------|
|----2----------3--1-----|
|----0----------1--1-----|
|------------------1-----|
verse part 2

|---17--18--15--13----17--18--15--17p15p13---|
|--------------------------------------------|
|--------------------------------------------|
|--------------------------------------------|
|--------------------------------------------|
|--------------------------------------------|
quiet bridge part

|---10--13-----------10--13---------------|
|-----------13--10-----------13--10-------|
|-----------------------------------------|
|-----------------------------------------|  repeat bridge parts
|-----------------------------------------|  as necessary
|-----------------------------------------|
quiet bridge part continued

|-----------------------------------------------------------------------|
|-----------------------------------------------------------------------|
|--10-\-7---13-13-13-13-13-13-13-13--10-\-7---13-13-13-13--17-17-17-17--|
|-----------------------------------------------------------------------|
|---8-\-5---11-11-11-11-11-11-11-11---8-\-5---11-11-11-11--15-15-15-15--|
|-----------------------------------------------------------0--0--0--0--|
post bridge 1     play twice

|-------------------------------------------------------------|
|-------------------------------------------------------------|
|--10-\-7---6-6--6-6-6--6-6-6--10-\-7---6-6--6-6-6--6-6-6-----|
|-------------------------------------------------------------|
|---8-\-5---4-4--4-4-4--4-4-4---8-\-5---4-4--4-4-4--4-4-4-----|
|-------------------------------------------------------------|
next verse  (hold on tight....)     then play the post bridge part and then repeat this 
again

then back to the first verse part

|---2--2--2--------------------2--2--2------------------------|
|---3--3--3---3-4-3---3-4-3----3--3--3---3-4-3---3-4-3--------|
|---2--2--2---------2----------2--2--2---------2--------------|
|---0--0--0--------------------0--0--0------------------------|
|---0--0--0--------------------0--0--0------------------------|
|---0--0--0--------------------0--0--0------------------------|
third verse (?) part

|----------------------------------------------------|
|---1--1--1--0-1-0---0-1-0--0--0--0--0-1-0---0-1-0---|
|---0--0--0--------0--------0--0--0------------------|
|---2--2--2-----------------2--2--2------------------|
|---3--3--3-----------------3--3--3------------------|
|----------------------------------------------------|
third verse continued

then repeat bridge

|--------------------------------------------------------------|
|--------------------------------------------------------------|
|-10-10-10-10-10-10-10-10---8-8-8-8-8-8-8-8-8\7-7-7-7-7-7-7-7--|
|--------------------------------------------------------------|
|--8--8--8--8--8--8--8--8---6-6-6-6-6-6-6-6-6\5-5-5-5-5-5-5-5--|
|--------------------------------------------------------------|
outro                   play this twice, then play next outro part twice and repeat a 
times

|-------------------------------------------------------------------------|
|-------------------------------------------------------------------------|
|--14-14-14-14-14-14-14--12-12-12-12-12-12-12-12\10-10-10-10-10-10-10-10--|
|-------------------------------------------------------------------------|
|--12-12-12-12-12-12-12--10-10-10-10-10-10-10-10\-8--8--8--8--8--8--8--8--|
|-------------------------------------------------------------------------|
outro continued

thats about everything. easy to figure out the order of the parts.
any suggestions/comments etc. email me.
Добавлено: 13.05.2012
Другие материалы по этой песне:
  • Аккорды и текст

Страница создана 13.05.2012
http://primanota.ru/made-out-of-babies/stranger-chords.htm
Привет, Гость.
Предлагаем пройти революционный курс по гитаре.
Подарок от PrimaNota.Ru, забирай!