PrimaNota.ru - самый крупный в мире бесплатный архив песенных текстов, аккордов, табулатур и нот


Made Out Of Babies - Herculoid - таба, видео

Регистрация Запомнить меня
Войти через:  Facebook Google Twitter Vk Yandex Mail.ru

Made Out Of Babies - Herculoid - таба, видео

Печатать
Просмотров: 127
MADE OUT OF BABIES

HERCULOID

tabbed by dan (yellowledbetter_69@hotmail.co.uk)

DROPPED-D TUNING

verses
|---------------------------------------------------------------------------|
|---------------------------------------------------------------------------|
|---------------------------------------------------------------------------|
|---------------------------------------------------------------------------|
|-------------------9p8p0--4h5-5-4h5-5------------------9p8p0-4h5-5-4h5-5---|
|---7-7-7-7-7-7-7-7---------------------7-7--7-7--7-7-----------------------|
   pm---------------|                   pm----------------------------------|

verses continued
|---------------------------------------------------------------------------|
|---------------------------------------------------------------------------|
|---------------------------------------------------------------------------|
|---------------------------------------------------------------------------|
|------------------9p8p0--4h5-5-4h5-5-------------------9p8p0-4h5-5-4h5-5---|
|---7-7--7-7-7-7-7---------------------7-7-7-7-7-7-7-7----------------------|
  pm---------------|                    pm----------------------------------|

|---------------------------------------|
|---------------------------------------|
|---------------------------------------|
|---0---0------7p6--0--3p0--3--3p0--3---|
|---0---0------7p6--0--3p0--3--3p0--3---|
|---0---0------7p6--0--3p0--3--3p0--3---|
chorus 1          play this 4 times, then back to verse

|-------------------------------|
|-------------------------------|
|------7----9---7---------------|
|---0--7----9---7---0--4p0--3---|
|---0--5----7---5---0--4p0--3---|
|---0--0------------0--4p0--3---|
chorus 2   (after playing the chorus 1 bit 4 times)

|---------------------------------------------------|
|---------------------------------------------------|
|----9--9-9-9-9--9--9-9---11--11--11---13--13--13---|
|---------------------------------------------------|
|----7--7-7-7-7--7--7-7----9---9---9---11--11--11---|
|----7--7-------------------------------------------|
post-chorus 2

then go back to verse and repeat both of the chorus parts and post-chorus part again as necessary.

|------------------------------------------------------|
|------------------------------------------------------|
|--7-7-7-7-7-7-7-7------7-7-7-7-7-7-7-7-------9-9-9----|
|--7-7-7-7-7-7-7-7------7-7-7-7-7-7-7-7----------------|
|--5-5-5-5-5-5-5-5------5-5-5-5-5-5-5-5-------7-7-7----|
|--0-0-0-0-0-0-0-0------0-0-0-0-0-0-0-0-------0-0-0----|
bridge

|------------------------------|
|------------------------------|
|--7-7-7-7-7-7-7-7------9-9-9--|
|--7-7-7-7-7-7-7-7-------------|
|--5-5-5-5-5-5-5-5------7-7-7--|
|--0-0-0-0-0-0-0-0-------------|
bridge continued

|----------------------------------------|
|----------------------------------------|
|--7-7-7-7-7-7-7---9-9-9-9--13--13--13---|
|--7-7-7-7-7-7-7-------------------------|
|--5-5-5-5-5-5-5---7-7-7-7--11--11--11---|
|--0-0-0-0-0-0-0-------------------------|
outro part 1

|-----------------------------------------------------|
|-----------------------------------------------------|
|--13-13-13-13-13-13-13-13-13-13-13-13-13-13-13-13----|
|-----------------------------------------------------|
|--11-11-11-11-11-11-11-11-11-11-11-11-11-11-11-11----|
|-----------------------------------------------------|
outro part 2     (not exact no. of strums)

then play the second part of second chorus a few times

the last bar is this:
|-------------------------------------------------|
|-------------------------------------------------|
|--9-9-9-9-9-9-11-11-11-11-11-11--13-13-13-13-13--|
|-------------------------------------------------|
|--7-7-7-7-7-7--9--9--9--9--9--9--11-11-11-11-11--|
|-------------------------------------------------|

that's everything. any comments/suggestion etc, email me.
Добавлено: 28.06.2012
Другие материалы по этой песне:
  • Аккорды и текст

Страница создана 28.06.2012
http://primanota.ru/made-out-of-babies/herculoid-chords.htm
Привет, Гость.
Предлагаем пройти революционный курс по гитаре.
Подарок от PrimaNota.Ru, забирай!