PrimaNota.ru - самый крупный в мире бесплатный архив песенных текстов, аккордов, табулатур и нот


Made Out Of Babies - Cooker - таба, видео

Регистрация Запомнить меня
Войти через:  Facebook Google Twitter Vk Yandex Mail.ru

Made Out Of Babies - Cooker - таба, видео

Печатать
Просмотров: 96
MADE OUT OF BABIES

COOKER

tabbed by dan (yellowledbetter_69@hotmail.co.uk)

DROP-D TUNING

NOTE: THE INTRO SOUNDS ARE ACHIEVED BY HITTING THE STRINGS IN RHYTHM WITH THE
PALMS OF YOUR HANDS ON THE NECK AND ABOVE THE PICKUPS, AND RECORDING IT
 THROUGH (WHAT I'D ASSUME TO BE) A LINE 6  DL-4. IT IS REPEATED THROUGHOUT
 MOST OF THE SONG.

|--------------------------------------------------------------------|
|--------------------------------------------------------------------|
|---7--7--7--7-7-7---7--7--7--7-7-7---7--7--7-7-7---7--7--7--7-7-7---|
|---7--7--7--7-7-7---7--7--7--7-7-7---7--7--7-7-7---7--7--7--7-7-7---|
|---5--5--5--5-5-5---5--5--5--5-5-5---5--5--5-5-5---5--5--5--5-5-5---|
|---0--0--0--0-0-0---0--0--0--0-0-0---0--0--0-0-0---0--0--0--0-0-0---|
intro part 1

|----------------------------------------------------|
|----------------------------------------------------|
|---14---14-13--9--9-10---7----7-6-----5-4---5-4-5---|
|----------------------------------------------------|
|---12---12-11--7--7--8---5----5-4-----3-2---3-2-3---|
|----------------------------------------------------|
intro part 2   play 1st time, then repeat part 1

|---------------------------------------------------|
|---------------------------------------------------|
|---14---14-13--9--9-10---9----7-6----5-4---5-4-5---|
|---------------------------------------------------|
|---12---12-11--7--7--8---7----5-4----3-2---3-2-3---|
|---------------------------------------------------|
intro part 3  play 2nd time, then repeat part 1

|--------------------------------------------------------|
|--------------------------------------------------------|
|--------------------------------------------------------|
|--------1-----1-----1-----1-------1-----1-----1-----1---|
|-------------------------------2-----2-----2-----2------|
|-----1-----1-----1-----1--------------------------------|
verses     use wah as filter

|--------------------------------------------------------|
|--------------------------------------------------------|
|--------------------------------------------------------|
|--------1-----1-----1-----1-------1-----1-----1---------|
|-------------------------------0-----0-----0-----0------|
|-----1-----1-----1-----1--------------------------------|
verses continued

|-------------------------------------------------------|
|-------------------------------------------------------|
|----------------------------5-----5-----4-----4--------|
|-------2-----2-----2-----2-----2-----2-----2-----2-----|
|----3-----3-----3-----3--------------------------------|
|-------------------------------------------------------|
chorus (I can see the way.....)  

|-------------------------------------------------------|
|-------------------------------------------------------|
|----------------------------5-----5-----0-----0--------|
|-------2-----2-----2-----2-----2-----2-----2-----2-----|
|----3-----3-----3-----3--------------------------------|
|-------------------------------------------------------|
chorus continued          repeat both parts

|--------------------------------------------------------|
|--------------------------------------------------------|
|--------------------------------------------------------|
|--------1-----1-----1-----1-----1-----1-----1------1----|
|--------------------------------------------------------|
|-----1-----1-----1-----1-----1-----1-----1-----1--------|
post chorus break

|------10----10----10----10----10---10---10---10-----|
|---11----11----11----11----------9----9----9----9---|
|----------------------------------------------------|
|----------------------------------------------------|
|----------------------------------------------------|
|----------------------------------------------------|
post chorus (run, run for your life...)       x2

|----8h10--10--8-10--8--10--10------------|
|----------------------------*------------|
|---------------------------trem pick-----|
|-----------------------------------------|
|-----------------------------------------|
|-----------------------------------------|
post chorus part 2     x2      (this is not exact, it seems to change a little each time)

post chorus is also used as outro. end song on D.

that's all of the parts. it's easy to figure out the complete order of them.
any comments, suggestions etc email me.
Добавлено: 12.06.2012
Другие материалы по этой песне:
  • Аккорды и текст

Страница создана 12.06.2012
http://primanota.ru/made-out-of-babies/cooker-chords.htm
Привет, Гость.
Предлагаем пройти революционный курс по гитаре.
Подарок от PrimaNota.Ru, забирай!