PrimaNota.ru - самый крупный в мире бесплатный архив песенных текстов, аккордов, табулатур и нот


Made Of Hate - Bullet In Your Head - текст песни, бас-таба, видео

Регистрация Запомнить меня
Войти через:  Facebook Google Twitter Vk Yandex Mail.ru

Made Of Hate - Bullet In Your Head - текст песни, бас-таба, видео

Печатать
Просмотров: 157
Standard tuning

G|-------------------------------------------------------------|
D|-------------------------------------------------------------|
A|-5-5--5-5-5-5-5-5-5--5-5-5-5-5-8-8--8-8-8-8-8-3-3--3-3-3-3-3-| x2
E|-------------------------------------------------------------|

G|---------------|
D|3------7-------|
A|-55--55-5555555| x2 
E|---------------|

G|--------------------------------|
D|7------10--------2------5-------|
A|-88--88--8888888--33--33-3333333|
E|--------------------------------|

G|---------------|
D|3------7-------|
A|-55--55-5555555| x2 
E|---------------|

G|---------------------------------------------------------------|
D|------------------------------------------------------5--6-----|
A|888888888888888833333333333333335----5-5-5-5-6--1--3--------1--|
E|---------------------------------------------------------------|

G|-----------------------------------------------------------------|
D|-----------------------------------------------------------------|
A|--------------------------------6--66-66-666----3333-------------| x3
E|3--33-33-333-15-3--33-33-333-10--------------65-----5555511113355|

G|-----------------------------------------------------------------|
D|-----------------------------------------------------------------|
A|--------------------------------6--66-66-666----33333333---------| 
E|3--33-33-333-15-3--33-33-333-10--------------65---------111111111|

G|--------------------------------------------------------------|
D|----3---------------3---------3-----3---------------3---------|
A|3555-5553-5-55553555-555----5---3555-5553-5-55553555-5555-5-3-| 
E|------------------------3-6-----------------------------------|

G|-----------------------------------------------------------|
D|----3---------------3---------3-----3---------------3------|
A|3555-5553-5-55553555-555----5---3555-5553-5-55553555-5-5-5-| 
E|------------------------3-6--------------------------------|

G|-------------------------------------------|
D|-------------------------------------------|
A|3-3-3-3--------3-3-3-3---------3-3-3-3-----|
E|--------6-6-6-6--------6-6-6-6---------6-8-|

G|-------------------------------------------------------------|
D|-------------------------------------------------------------|
A|-5-5--5-5-5-5-5-5-5--5-5-5-5-5-8-8--8-8-8-8-8-3-3--3-3-3-3-3-| x2
E|-------------------------------------------------------------|

G|---------------|
D|3------7-------|
A|-55--55-5555555| x2 
E|---------------|

G|--------------------------------|
D|7------10--------2------5-------|
A|-88--88--8888888--33--33-3333333|
E|--------------------------------|

G|---------------|
D|3------7-------|
A|-55--55-5555555| x2 
E|---------------|

G|---------------------------------------------------------------|
D|------------------------------------------------------5--6-----|
A|888888888888888833333333333333335----5-5-5-5-6--1--3--------1--|
E|---------------------------------------------------------------|

G|-----------------------------------------------------------------|
D|-----------------------------------------------------------------|
A|--------------------------------6--66-66-666----3333-------------| x3
E|3--33-33-333-15-3--33-33-333-10--------------65-----5555511113355|

G|-----------------------------------------------------------------|
D|-----------------------------------------------------------------|
A|--------------------------------6--66-66-666----33333333---------| 
E|3--33-33-333-15-3--33-33-333-10--------------65---------1--------|

G|---------------------------------------------------------|
D|---------------------------------------------------------|
A|5-5--5-5-5--5-5-5--5-5-5--5-5-5--5-5-5--5-5-5--5-5-5-3---|
E|---------------------------------------------------------|

G|--------------------------------------------|
D|--------------------------------------------|
A|5-5--5-5-5--5-3---1---5-5--5-5-5--5-1-------|
E|----------------------------------------1---|

G|---------------------------------------------------------|
D|---------------------------------------------------------|
A|5-5--5-5-5--5-5-5--5-5-5--5-5-5--5-5-5--5-5-5--5-5-5-3---|
E|---------------------------------------------------------|

G|--------------------------------------------|
D|--------------------------------------------|
A|5-5--5-5-5--5-3---1---5-5--5-5-5--5-1-------|
E|----------------------------------------1---|

G|-------------------------------------------------------|
D|-------------------------------------------------------|
A|5------------5--5-----------5------5-5-----000033335555|
E|-------------------------------------------------------|

G|------------------|   |----------------|
D|------------------|   |----------------|
A|-55--55--55555555-|x3 |55--55-5555-----|
E|------------------|   |-----------3333-|

G|-----------------|   |-------------------|
D|-----------------|   |-------------------|
A|-----------------|x4 |5----5-5-5-5-1--3--|
E|-33--33-33333333-|   |-------------------|

G|--------------|   |-------------------------------|
D|--------------|   |-------------------------------|
A|5-55-55-555--7|x2 |-----------------------3-3-7-3-|
E|-----------8--|   |6-66-66-666-65-3-33-33---------|

G|--------------|   |-----------------------------|
D|--------------|   |-----------------------------|
A|5-55-55-555--7|x2 |---------------3-3-3-3-1--3--|
E|-----------8--|   |6-66-66-666-65---------------|

G|-----------------------------------------------------------------|
D|-----------------------------------------------------------------|
A|--------------------------------6--66-66-666---------------------|
E|3--33-33-333-15-3--33-33-333-10--------------65-3-3-3-3-3-3-3-3--|

G|------------------------------------------------------------|
D|------------------------------------------------------------|
A|--------------------------------6--66-66-666----3----1--3---|
E|3--33-33-333-15-3--33-33-333-10--------------65-------------|

G|--------------------------------------------------------------|
D|----3---------------3---------3-----3---------------3---------|
A|3555-5553-5-55553555-555----5---3555-5553-5-55553555-5555-5-3-| 
E|------------------------3-6-----------------------------------|

G|-----------------------------------------------------------|
D|----3---------------3---------3-----3---------------3------|
A|3555-5553-5-55553555-555----5---3555-5553-5-55553555-5-5-5-| 
E|------------------------3-6--------------------------------|

G|-------------------------------------------|
D|-------------------------------------------|
A|3-3-3-3--------3-3-3-3---------3-3-3-3-----|
E|--------6-6-6-6--------6-6-6-6-------------|

G|-------------------------------------------------------------|
D|-------------------------------------------------------------|
A|-5-5--5-5-5-5-5-5-5--5-5-5-5-5-8-8--8-8-8-8-8-3-3--3-3-3-3-3-| x2
E|-------------------------------------------------------------|

G|---------------|
D|3------7-------|
A|-55--55-5555555| x2 
E|---------------|

G|--------------------------------|
D|7------10--------2------5-------|
A|-88--88--8888888--33--33-3333333|
E|--------------------------------|

G|---------------|
D|3------7-------|
A|-55--55-5555555| x2 
E|---------------|

G|-------------------------------------|
D|-------------------------------------|
A|888888888888888833333333333333335----|
E|-------------------------------------|
Добавлено: 21.03.2012
Другие материалы по этой песне:

Страница создана 03.03.2012
http://primanota.ru/made-of-hate/bullet-in-your-head-chords.htm
Привет, Гость.
Предлагаем пройти революционный курс по гитаре.
Подарок от PrimaNota.Ru, забирай!