PrimaNota.ru - самый крупный в мире бесплатный архив песенных текстов, аккордов, табулатур и нот


Madball - Pride - текст песни, таба, бас-таба, видео

Регистрация Запомнить меня
Войти через:  Facebook Google Twitter Vk Yandex Mail.ru

Madball - Pride - текст песни, таба, бас-таба, видео

Печатать
Просмотров: 334
Уроки эстрадного вокала в Санкт-Петербурге
Madball
"Pride"
Demonstrating My Style
1996

Regular tuning:

Intro:
e------------------------
B------------------------
G------------------------
D--222222222222----------
A--222222222222----------
E--000000000000---------- build up......
   ............ palm muted

Main riff / Chorus:
e----------------------------------------------------------------------------
B----------------------------------------------------------------------------
G--------------------------------6-6-6-6-6-6-6-6--9-9-9-9-9-9--8-8-8-8-8-8---
D--2-2-2-2-2-2-2-2-2-2-2-2-2-2-2-6-6-6-6-6-6-6-6--9-9-9-9-9-9--8-8-8-8-8-8---
A--2-2-2-2-2-2-2-2-2-2-2-2-2-2-2-4-4-4-4-4-4-4-4--7-7-7-7-7-7--6-6-6-6-6-6---
E--0-0-0-0-0-0-0-0-0-0-0-0-0-0-0---------------------------------------------

e----------------------------------------------------------------------------
B----------------------------------------------------------------------------
G--6-8-8-8---3-3-3-3-3-3--5-3-2-6-6-6----------------------------------------
D--6-8-8-8---3-3-3-3-3-3--5-3-2-6-6-6----------------------------------------
A--4-6-6-6---1-1-1-1-1-1--3-1-0-4-4-4----------------------------------------
E----------------------------------------------------------------------------

Verse:
e------------------------------------                e-----------------
B------------------------------------                B-----------------
G------------------------------------                G-----------------
D--22-2--22-2--222-3-3-3-------------                D--5-3-2-6-6-6----
A--22-2--22-2--222-3-3-3-------------                A--5-3-2-6-6-6----
E--00-0--00-0--000-1-1-1------------- end verse with E--3-1-0-4-4-4----
   ..    ..    ...

Bridge ( "times are changing..." ):
e-------------------------------------------------------------------------------
B-------------------------------------------------------------------------------
G------------------------------3-5-5-5-----------------------------5-3-2-6-6-6--
D--4-------5-4-------2-4-------3-5-5-5-4-------5-4-------2-4-------5-3-2-6-6-6--
A--4-------5-4-------2-4-------1-3-3-3-4-------5-4-------2-4-------3-1-0-4-4-4--
E--2-22222-3-2-22222-0-2-22222---------2-22222-3-2-22222-0-2-22222--------------
     .....     .....     .....           .....     .....     .....
Добавлено: 13.06.2012
Другие материалы по этой песне:

Страница создана 09.03.2012
http://primanota.ru/madball/pride-chords.htm
Привет, Гость.
Предлагаем пройти революционный курс по гитаре.
Подарок от PrimaNota.Ru, забирай!