PrimaNota.ru - самый крупный в мире бесплатный архив песенных текстов, аккордов, табулатур и нот


Mad Season - X-ray Mind - аккорды и текст, таба, бас-таба, видео

Регистрация Запомнить меня
Войти через:  Facebook Google Twitter Vk Yandex Mail.ru

Mad Season - X-ray Mind - аккорды и текст, таба, бас-таба, видео

Печатать
Просмотров: 293
Авторы музыки: Mike McCready, Barrett Martin, John Baker Saunders
Авторы текста: Layne Staley
X-ray Mind
Mad Season
		   Author/Artist: Mad Season
Title: X-Ray Mind
Album: Above
Transcribed by: Evan Cowan
Email: ecowan@uclink4.berkeley.edu

In a video Mike plays this on a 12-string...During the
octave riff (intro and later on), a 12 string would only play the lower note
Verse is played with delay

-|----------------------------------------|-----------------------------------
-|----------------------------------------|-----------------------------------
-|--9---12---7----5---2----9----12---7----|-----------------------------------
-|--x----x---x----x---x----x-----x---x----|-----------------------------------
-|--7---10---5----3---0----7----10---5----|-----------------------------------
-|----------------------------------------|-----------------------------------
 Intro

-|------------------------------------------------|---------------------------
-|-10--8----8h10--8\------------10--8----8h10--\--|---------------------------
-|--------9----------0-7-5-------------9----------|---------------------------
-|-------------------------7-0--------------------|---------------------------
-|------------------------------------------------|---------------------------
-|------------------------------------------------|---------------------------
 Two guitars                                    2x

-|---------------------------------------------------|------------------------
-|--------5-----------------------------5------------|------------------------
-|--------5-----------------------------5------------|------------------------
-|--------7-----------------------------7------------|------------------------
-|--------0-----------------------------0------------|------------------------
-|---------------------------------------------------|------------------------
   C the laughs die when      one such as I run

-|---------------------------------------------------|------------------------
-|-------5--------------------------5----------------|------------------------
-|-------5--------------------------5----------------|------------------------
-|-------7--------------------------7----------------|------------------------
-|-------0--------------------------0----------------|------------------------
-|---------------------------------------------------|------------------------
   And allow myself        time for own true needs

-|---------------------------------------------------|------------------------
-|---------5----------------------------5------------|------------------------
-|---------5----------------------------5------------|------------------------
-|---------7----------------------------7------------|------------------------
-|---------0----------------------------0------------|------------------------
-|---------------------------------------------------|------------------------
   When convincing me       that you're on my team

-|---------------------------------------------------|------------------------
-|---------5----------------------5------------------|------------------------
-|---------5----------------------5------------------|------------------------
-|---------7----------------------7------------------|------------------------
-|---------0----------------------0------------------|------------------------
-|---------------------------------------------------|------------------------
   May not lie to me      but not mentioning

-|----------------------------------------|-----------------------------------
-|----------------------------------------|-----------------------------------
-|--9---12---7----5---2----9----12---7----|-----------------------------------
-|--x----x---x----x---x----x-----x---x----|-----------------------------------
-|--7---10---5----3---0----7----10---5----|-----------------------------------
-|----------------------------------------|-----------------------------------


-|------------------------------------------------|---------------------------
-|-10--8----8h10--8\------------10--8----8h10--\--|---------------------------
-|--------9----------0-7-5-------------9----------|---------------------------
-|-------------------------7-7--------------------|---------------------------
-|-------------------------0-0--------------------|---------------------------
-|------------------------------------------------|---------------------------


-|-----------------------------------------------------|----------------------
-|--------5-----------------------5--------------------|----------------------
-|--------5-----------------------5--------------------|----------------------
-|--------7-----------------------7--------------------|----------------------
-|--------0-----------------------0--------------------|----------------------
-|-----------------------------------------------------|----------------------
   G sit back and have      an hysterical

-|-----------------------------------------------------|----------------------
-|----------5------------------------5-----------------|----------------------
-|----------5------------------------5-----------------|----------------------
-|----------7------------------------7-----------------|----------------------
-|----------0------------------------0-----------------|----------------------
-|-----------------------------------------------------|----------------------
   Laugh at tiny holes       buy and trade men's souls

-|----------------------------------------------|-----------------------------
-|-------------5---5---------------------5--\---|-----------------------------
-|-------------5---5h7p5-----------------5--\---|-----------------------------
-|-5h7---7-7-7-----------7---5h7---7-7-7--------|-----------------------------
-|-0-----0-0-0-------------0-0-----0-0-0--------|-----------------------------
-|----------------------------------------------|-----------------------------
                                              2x

-|----------------------------------------------------------------------|-----
-|---------13-----------------------12----------------------------12----|-----
-|----------0------------------------0----------------------------------|-----
-|----------------------------------------------------------------------|-----
-|----------------------------------------------------------------------|-----
-|----------------------------------------------------------------------|-----
 G  X-ray mind____________________  reads________________________

-|------------------------------------------------------------------------|---
-|------------------------------------------------------------------------|---
-|---------------------5---5h7p5-----------------5------------------------|---
-|---------5h7---7-7-7-----------7---5h7---7-7-7--------------------------|---
-|---------------------------------0--------------------------------------|---
-|------------------------------------------------------------------------|---
 G(very quietly)

-|-------------------------------------------------|--------------------------
-|---8-10----------------------8-10----10----10----|--------------------------
-|---0-------------------------0-----0-----0-------|--------------------------
-|-------------------------------------------------|--------------------------
-|-------------------------------------------------|--------------------------
-|-------------------------------------------------|--------------------------
 G  Plenty________________

-|-------------------------------------------------|--------------------------
-|---------------5-------------------------5-------|--------------------------
-|---------------5---5h7p5-----------------5-------|--------------------------
-|---5h7---7-7-7-----------7---5h7---7-7-7---------|--------------------------
-|---------------------------0---------------------|--------------------------
-|-------------------------------------------------|--------------------------
 G

-|-------------------------------------------------------------------------|--
-|---10----12-13------------------------12--------------------------12-----|--
-|-------------0-------------------------0---------------------------------|--
-|-------------------------------------------------------------------------|--
-|-------------------------------------------------------------------------|--
-|-------------------------------------------------------------------------|--
 G   Worth no more__________________    than_____________________

-|-------------------------------------------------------------------------|--
-|-------------------------------------------------------------------------|--
-|-------------------------5---5h7p5-----------------5---------------------|--
-|-------------5h7---7-7-7-----------7---5h7---7-7-7-----------------------|--
-|-------------------------------------0-----------------------------------|--
-|-------------------------------------------------------------------------|--
 G

-|----------------------------------------------------|-----------------------
-|----8-10----------------------8-10----10----10--\---|-----------------------
-|----0-------------------------0-----0-----0---------|-----------------------
-|----------------------------------------------------|-----------------------
-|----------------------------------------------------|-----------------------
-|----------------------------------------------------|-----------------------
 G   Pennies_______________

-|----------------------------------------------------|-----------------------
-|----------------5-------------------------5---------|-----------------------
-|----------------5---5h7p5-----------------5---------|-----------------------
-|----5h7---7-7-7-----------7---5h7---7-7-7-----------|-----------------------
-|----------------------------0-----------------------|-----------------------
-|----------------------------------------------------|-----------------------
 G

-|---------------------------------------------------|------------------------
-|--10--8----8h10--8\----------10--8----8h10--\------|------------------------
-|---------9-----------7-5------------9--------------|------------------------
-|-------------------------7-7-----------------------|------------------------
-|-------------------------0-0-----------------------|------------------------
-|---------------------------------------------------|------------------------
 G

-|---------------------------------------------------|------------------------
-|-----------------------------10--8----8h10-----\-/-|------------------------
-|---------------------7-5------------9--------------|------------------------
-|---7---------------------7-7-----------------------|------------------------
-|---0---------------------0-0-----------------------|------------------------
-|---------------------------------------------------|------------------------
 G

-|--------------------------------------10b12-----|---------------------------
-|--10--8----8h10--8\----------10--8--------------|---------------------------
-|---------9-----------7-5------------9-----------|---------------------------
-|-------------------------7----------------------|---------------------------
-|-------------------------0-0--------------------|---------------------------
-|------------------------------------------------|---------------------------
 G

-|------------------------------------------------|---------------------------
-|--10--8----8h10--8\----------10--8----8h10---\--|---------------------------
-|---------9-----------7-5------------9-----------|---------------------------
-|-------------------------7----------------------|---------------------------
-|-------------------------0-0--------------------|---------------------------
-|------------------------------------------------|---------------------------
 G

-|--------------------------------------------------------|-------------------
-|--------------5--------------------------5--------------|-------------------
-|--------------5--------------------------5--------------|-------------------
-|--------------7--------------------------7--------------|-------------------
-|--------------0--------------------------0--------------|-------------------
-|--------------------------------------------------------|-------------------
 G  You, they, it, or what      have been fair I thought

-|-------------------------------------------------|--------------------------
-|---------5--------------------------5------------|--------------------------
-|---------5--------------------------5------------|--------------------------
-|---------7--------------------------7------------|--------------------------
-|---------0--------------------------0------------|--------------------------
-|-------------------------------------------------|--------------------------
   May you never free        you from you or me

-|-------------------------------------------------|--------------------------
-|---------5----------------------5----------------|--------------------------
-|---------5----------------------5----------------|--------------------------
-|---------7----------------------7----------------|--------------------------
-|---------0----------------------0----------------|--------------------------
-|-------------------------------------------------|--------------------------
   See the more I think      I'm afraid to blink

-|-------------------------------------------------|--------------------------
-|---------5------------------------5--------------|--------------------------
-|---------5------------------------5--------------|--------------------------
-|---------7------------------------7--------------|--------------------------
-|---------0------------------------0--------------|--------------------------
-|-------------------------------------------------|--------------------------
   I don't move an inch      slowly draining me

-|----------------------------------------------|-----------------------------
-|-------------5---5---------------------5---\--|-----------------------------
-|-------------5---5h7p5-----------------5---\--|-----------------------------
-|-5h7---7-7-7-----------7---5h7---7-7-7--------|-----------------------------
-|-0-----0-0-0-------------0-0-----0-0-0--------|-----------------------------
-|----------------------------------------------|-----------------------------
                                              2x

-|--------------------------------------------------------------|-------------
-|----------13------------------------12------------------------|-------------
-|-----------0-------------------------0------------------------|-------------
-|--------------------------------------------------------------|-------------
-|--------------------------------------------------------------|-------------
-|--------------------------------------------------------------|-------------
 G   Hire a spy___________________    and_____________________

-|--------------------------------------------------------------|-------------
-|--------------------------------------------------------------|-------------
-|-----------------------5---5h7p5-----------------5------------|-------------
-|-----------5h7---7-7-7-----------7---5h7---7-7-7--------------|-------------
-|-----------------------------------0--------------------------|-------------
-|--------------------------------------------------------------|-------------
 G

-|--------------------------------------------------|-------------------------
-|---8-10----------------------8-10----10----10-----|-------------------------
-|---0-------------------------0-----0-----0--------|-------------------------
-|--------------------------------------------------|-------------------------
-|--------------------------------------------------|-------------------------
-|--------------------------------------------------|-------------------------
 G  Bug me_______________

-|--------------------------------------------------|-------------------------
-|---------------5----------------------------------|-------------------------
-|---------------5---5h7p5-----------------5--------|-------------------------
-|---5h7---7-7-7-----------7---5h7---7-7-7----------|-------------------------
-|---------------------------0----------------------|-------------------------
-|--------------------------------------------------|-------------------------
 G

-|--------------------------------------------------------------|-------------
-|--10---12---13------------------------12----------------------|-------------
-|-------------0-------------------------0----------------------|-------------
-|--------------------------------------------------------------|-------------
-|--------------------------------------------------------------|-------------
-|--------------------------------------------------------------|-------------
 G  Pimp your friends__________________ for____________________

-|--------------------------------------------------------------|-------------
-|--------------------------------------------------------------|-------------
-|-------------------------5---5h7p5-----------------5----------|-------------
-|-------------5h7---7-7-7-----------7---5h7---7-7-7------------|-------------
-|-------------------------------------0------------------------|-------------
-|--------------------------------------------------------------|-------------
 G

-|--------------------------------------------------|-------------------------
-|---8-10----------------------8-10----10----10-----|-------------------------
-|---0-------------------------0-----0-----0--------|-------------------------
-|--------------------------------------------------|-------------------------
-|--------------------------------------------------|-------------------------
-|--------------------------------------------------|-------------------------
 G  Money_________________

-|--------------------------------------------------|-------------------------
-|---------------5-------------------------5--------|-------------------------
-|---------------5---5h7p5-----------------5--------|-------------------------
-|---5h7---7-7-7-----------7---5h7---7-7-7----------|-------------------------
-|---------------------------0----------------------|-------------------------
-|--------------------------------------------------|-------------------------
 G

-|------------------------------------------------------------|---------------
-|--10---12--13------------------------12---------------------|---------------
-|------------0-------------------------0---------------------|---------------
-|------------------------------------------------------------|---------------
-|------------------------------------------------------------|---------------
-|------------------------------------------------------------|---------------
 G  Rich and grow-____________________ ing___________________

-|------------------------------------------------------------|---------------
-|------------------------------------------------------------|---------------
-|------------------------5---5h7p5-----------------5---------|---------------
-|------------5h7---7-7-7-----------7---5h7---7-7-7-----------|---------------
-|------------------------------------0-----------------------|---------------
-|------------------------------------------------------------|---------------
 G

-|------------------------------------------------|---------------------------
-|---8-10----------------------8-10----10----10---|---------------------------
-|---0-------------------------0-----0-----0------|---------------------------
-|------------------------------------------------|---------------------------
-|------------------------------------------------|---------------------------
-|------------------------------------------------|---------------------------
 G  Sicker__________________

-|------------------------------------------------|---------------------------
-|---------------5-------------------------5------|---------------------------
-|---------------5---5h7p5-----------------5------|---------------------------
-|---5h7---7-7-7-----------7---5h7---7-7-7--------|---------------------------
-|---------------------------0--------------------|---------------------------
-|------------------------------------------------|---------------------------
 G

-|------------------------------------------------------------|---------------
-|--10---12--13------------------------12---------------------|---------------
-|------------0-------------------------0---------------------|---------------
-|------------------------------------------------------------|---------------
-|------------------------------------------------------------|---------------
-|------------------------------------------------------------|---------------
 G  Sell the dead____________________  ones__________________

-|------------------------------------------------------------|---------------
-|------------------------------------------------------------|---------------
-|------------------------5---5h7p5-----------------5---------|---------------
-|------------5h7---7-7-7-----------7---5h7---7-7-7-----------|---------------
-|------------------------------------0-----------------------|---------------
-|------------------------------------------------------------|---------------
 G

-|--------8------------------------------------------------|------------------
-|---8-10---10-8-10------------8-10----10----10-----10-12--|------------------
-|---0-------------------------0-----0-----0---------------|------------------
-|---------------------------------------------------------|------------------
-|---------------------------------------------------------|------------------
-|---------------------------------------------------------|------------------
 G  Quicker_________ With Fill 1

-|---------------------------------------------------------|------------------
-|---------------5-------------------------5---------------|------------------
-|---------------5---5h7p5-----------------5---------------|------------------
-|---5h7---7-7-7-----------7---5h7---7-7-7-----------------|------------------
-|---------------------------0-----------------------------|------------------
-|---------------------------------------------------------|------------------
 G

-|--------------------------------------------|-------------------------------
-|-13-----------------------12----------------|-------------------------------
-|--0------------------------0----------------|-------------------------------
-|--------------------------------------------|-------------------------------
-|--------------------------------------------|-------------------------------
-|--------------------------------------------|-------------------------------
 G

-|--------------------------------------------|-------------------------------
-|-------------5---5---------------------5----|-------------------------------
-|-------------5---5h7p5-----------------5----|-------------------------------
-|-5h7---7-7-7-----------7---5h7---7-7-7------|-------------------------------
-|-0-----0-0-0-------------0-0-----0-0-0------|-------------------------------
-|--------------------------------------------|-------------------------------
 G

-|-------------------------------------------------------------------------|--
-|--8-10-----------------------10-------10-10-------10-10-------10---10-12-|--
-|--0--------------------12b13----12b13-------12b13-------12b13------------|--
-|-------------------------------------------------------------------------|--
-|-------------------------------------------------------------------------|--
-|-------------------------------------------------------------------------|--
 G         With Fill 2

-|-------------------------------------------------------------------------|--
-|-------------5---5---------------------5---------------------------------|--
-|-------------5---5h7p5-----------------5---------------------------------|--
-|-5h7---7-7-7-----------7---5h7---7-7-7-----------------------------------|--
-|-0-----0-0-0-------------0-0-----0-0-0-----------------------------------|--
-|-------------------------------------------------------------------------|--
 G

-|-------------------------------------------|--------------------------------
-|-13----13--13-13---13-13--12---12-----12---|--------------------------------
-|--0------------------------0---------------|--------------------------------
-|-------------------------------------------|--------------------------------
-|-------------------------------------------|--------------------------------
-|-------------------------------------------|--------------------------------
 G

-|-------------------------------------------|--------------------------------
-|-------------5---5---------------------5---|--------------------------------
-|-------------5---5h7p5-----------------5---|--------------------------------
-|-5h7---7-7-7-----------7---5h7---7-7-7-----|--------------------------------
-|-0-----0-0-0-------------0-0-----0-0-0-----|--------------------------------
-|-------------------------------------------|--------------------------------
 G

-|------------||--------------------------------------------------------------
-|--8-10------||--------------------------------------------------------------
-|--0---------||--------------------------------------------------------------
-|------------||--------------------------------------------------------------
-|------------||--------------------------------------------------------------
-|------------||--------------------------------------------------------------
 G           End

-|------------||--------------------------------------------------------------
-|------------||--------------------------------------------------------------
-|------------||--------------------------------------------------------------
-|--7---------||--------------------------------------------------------------
-|--0---------||--------------------------------------------------------------
-|------------||--------------------------------------------------------------
 G           End

-|-------------------------------------------------------------------------|--
-|-13b14r13-10---------10-10-----10-10-----10-10------10-------10-------10-|--
-|-------------12-12b13-----12b13-----12b13-----12b13----12b13----12b13----|--
-|-------------------------------------------------------------------------|--
-|-------------------------------------------------------------------------|--
-|-------------------------------------------------------------------------|--
 Fill 1

-|----------------------------------|-----------------------------------------
-|--13p10h13p10h13p10h13p10h13p10---|-----------------------------------------
-|----------------------------------|-----------------------------------------
-|----------------------------------|-----------------------------------------
-|----------------------------------|-----------------------------------------
-|----------------------------------|-----------------------------------------
 Fill 2 (trill)     
Добавлено: 13.11.2013
Другие материалы по этой песне:
  • Аккорды и текст

Страница создана 18.04.2012
http://primanota.ru/mad-season/x-ray-mind-chords.htm
Привет, Гость.
Предлагаем пройти революционный курс по гитаре.
Подарок от PrimaNota.Ru, забирай!