PrimaNota.ru - самый крупный в мире бесплатный архив песенных текстов, аккордов, табулатур и нот


Mad Season - River Of Deceit - аккорды и текст, таба, бас-таба, видео

Регистрация Запомнить меня
Войти через:  Facebook Google Twitter Vk Yandex Mail.ru

Mad Season - River Of Deceit - аккорды и текст, таба, бас-таба, видео

Печатать
Просмотров: 422
Авторы: Mike McCready, Barrett Martin, John Baker Saunders, Layne Staley
Авторы текста: Layne Staley
River Of Deceit
Mad Season
River Of Deceit by Mad Season

INTRO (3X)

|---------------------------------------------------|------------------------|
|-3----------3h5p3---3-------------0----------------|------------------------|
|-0----------------4---4\2p0-2/4p0-0---0------0---0-|-*0h2p0h2---------------|
|---------------------------*0-----2----------0h2-0-|------------------------|
|---------------------------------------------------|------------------------|
|---------------------------------------------------|------------------------| 

VERSE RIFF (PLAY 3X THEN UNDER VERSE)

|-1-------------------------------3----|-1----1-----------------------3--2--3--|
|-1-------------------------------3----|-1----1-----------------------3--3--3--|
|-2---------2p0-------------------0----|-2p0--0-----------------------0--0--0--|
|-3-------------0h2----------2p0--0----|-3----3--------------------------------|
|---------------------------------2----|---------------------------------------|
|---------------------------------3----|---------------------------------------|
                                 
VERSE 1:

   My pain is self-chosen, at least, so the prophet says 
   I could either burn, or cut off my pride and buy some time 
   Ahead full of lies is the weight, tied to my waist 
   
CHORUS PART 1                          CHORUS PART 2       

|-3--5--8--7-7--8p7-7--8p7-7--8--|     |-1-----------------3-------3--------|
|-3--5--8--8-8--8---8--8---8--8--|     |-1-----------------3---3h5-3--------|
|-0--0--0--0-0--0---0--0---0--0--|     |-2p0---------------0---0---0-4\2p0--|
|--------------------------------|     |-3----------------------------------|
|--------------------------------|     |------------------------------------|
|--------------------------------|     |------------------------------------|

CHORUS: (PLAY PART 1 UNDER)

   The river of deceit pulls down, oh  
   The only direction we flow is down 

(PLAY CHORUS PART 2 UNDER)

   Down, oh down, down, oh down 
   Down, oh down, down, oh down 

VERSE 2:
 
  My pain is self-chosen, at least I believe it to be 
  I could either drown, or pull off my skin and swim to shore 
  Now I can grow a beautiful shell for all to see 

REPEAT CHORUS;
     
(VERSE RIFF)
    
   The pain is self-chosen, yeah 
   Our pain is self-chosen 

Down, oh down... 

OUTRO

|-1-----------------3---------------|----------------------------0------|
|-1-----------------3--3----3-3-0---|---3h5p3---3----------------0------|
|-2p0---------------0--2b3*-3-3-0---|---------4---4\2p0-2/4p0----0------|
|-3---------------------------------|----------------------------2------|
|-----------------------------------|-----------------------------------|
|-----------------------------------|-----------------------------------|   END
Добавлено: 21.07.2015
Другие материалы по этой песне:

Страница создана 12.03.2012
http://primanota.ru/mad-season/river-of-deceit-chords.htm
Привет, Гость.
Предлагаем пройти революционный курс по гитаре.
Подарок от PrimaNota.Ru, забирай!