PrimaNota.ru - самый крупный в мире бесплатный архив песенных текстов, аккордов, табулатур и нот


Mad Season - Locomotive - текст песни, таба, видео

Регистрация Запомнить меня
Войти через:  Facebook Google Twitter Vk Yandex Mail.ru

Mad Season - Locomotive - текст песни, таба, видео

Печатать
Просмотров: 216
Авторы музыки: Mike McCready, Barrett Martin, John Baker Saunders, Mark Lanegan
Авторы текста: Mark Lanegan
LOCOMOTIVE

MAD SEASON

Tabbed by: Brownbear93

Incredibly awesome new track from Mad Season with original bassist John Baker Saunders
and Mark Lanegan handling vocals

All guitars in standard:
G1:distortion
G2:Clean
G3:w/wah 

Intro:  
G1                                                *repeat throughout intro
|-------------------------------------|--------------------------------------|
|-------------------------------------|--------------------------------------|
|-------------------------------------|--------------------------------------|
|-------------------------------------|--------------------------------------|
|-------------------------------------|--------------------------------------|
|--7-7---7-7---7-7---7-7-7-7-7--7-7-7-|---7-7-7-7-7-7-7-7-7-7-7-7-7-7-7-7-7--|
PM ...   ...   ...   .........  .....     .................................  

G2
|-----------0-------0-----7------|
|---7-------0-------0-----7------|
|---7-------0-------0-----0------|
|---9-------9-------9------------|
|---9-------9-------9------------|
|---7----------------------------|
 

Main Riff:
G1
|---------------------------------------------|
|---------------------------------------------|x4
|---------------------------------------------|
|--9--9-9-9-9\8-8-8-8-8-7--7-7-7-7/8-8-8-8-8--|
|--9--9-9-9-9\8-8-8-8-8-7--7-7-7-7/8-8-8-8-8--|
|--7--7-7-7-7\6-6-6-6-6-5--5-5-5-5/6-6-6-6-6--|

G2
|------0--------------------------------0------------------0----------------------------------------|
|----8-7---7-8-7--------------------------------------8-7----7----8-7-------------------------------|
|--9-------------9------9---9--------7----7-----9---9-----------9-----9----9---9---------9---9------|
|------------------9--9---9---9----9---------9----9---------------------9----9---9-----9---9---9----|
|---------------------------------------------------------------------------------------------------|
|---------------------------------------------------------------------------------------------------|


Verse:
G1
|--------------------------------------------------|
|--------------------------------------------------|x8
|--------------------------------------------------|
|--------------------------------------------------|
|--------------------------------------------------|
|--7--7-7-7-7-7-6-6-6-6-6-5--5-5-5-5-6-6-6-6-6-6---|
PM .  .....................  ...................

G3
|----------------------------------------------------|
|--7--7-7-7-7-7-6-6-6-6-6-6-5-5-5-5-5-5h6-6-6-6-6-6--|x4
|----------------------------------------------------|
|----------------------------------------------------|
|----------------------------------------------------|
|----------------------------------------------------|


Chorus:
G1
|---------7----------7--------------------------------------------------------------------|
|---------7----------7--------------------------------------------------------------------|x2
|---------7----------7----------------------------------------------------12-12-12-12-12--|
|--9--9-9-9---9--9-9-9---12--12-12-12-12-12---12-12-12-12-11--11-11-11-11-12-12-12-12-12--|
|--9--9-9-9---9--9-9-9---12--12-12-12-12-12---12-12-12-12-11--11-11-11-11-10-10-10-10-10--|
|--7--7-7-7---7--7-7-7---10--10-10-10-10-10---10-10-10-10--9---9--9--9--9-----------------|

G3
|----------------------------------------------------|
|--------------------------------------8-8-8-8-8-----|
|--7--7-7-7-7-7---7-7-7-7-6---6-6-6-6----------------|
|----------------------------------------------------|
|----------------------------------------------------|
|----------------------------------------------------|


Post Chorus:
G2
|---------------------------------------------------------------------------|
|----0---------0----------0-----------------------------0---------0---------|
|----7---------7----------7---------7---------7---------7---------7---------|
|--9---9-----9---9------9---9-----9---9-----9---9-----9---9-----9---9-------|
|----------9----------9---------9---------9---------9---------9-------------|
|---------------------------------------------------------------------------|

G3                                                       x2
|------|---------------------------------------------------|-------|
|------|-7--7-7-7-7-7-6-6-6-6-6-6-5-5-5-5-5-5h6-6-6-6-6-6--|-7~-\--|
|------|---------------------------------------------------|-------|
|------|---------------------------------------------------|-------|
|-x/---|---------------------------------------------------|-------|
|-x/---|---------------------------------------------------|-------|


Verse

Chorus


Solo:
G1
|----------------|
|----------------|x15
|--9br-7---7-9---|
|--------9-------|
|----------------|
|----------------|

G3
|-----------------------------------------------------------------------------------------|
|--12br-10-----10-12--12br-10----10-12--12br----10-12--12br----10-12--12br----10-12--12br-|
|-----------11----------------11-------------11-------------11-------------11-------------|
|-----------------------------------------------------------------------------------------|
|-----------------------------------------------------------------------------------------|
|-----------------------------------------------------------------------------------------|

|--------------------------------------------------------------------------------|
|-----10-12-12btr--12r----15b----15b(15-15-15-15)r--12---------------------------|
|--11---------------------------------------------------14-11-9-11-9brp7---7~-\--|
|------------------------------------------------------------------------9-------|
|--------------------------------------------------------------------------------|
|--------------------------------------------------------------------------------|

|-------------------------------------------------------------------------------------------------|
|---12br-10\------15brp12-12~----17br-17-15-17-15--------7-10p7-------------15tr-18tr-17tr-15tr\--|
|-----------------------------------------------------9b--------9p7---7---------------------------|
|-------------------------------------------------------------------9-----------------------------|
|-------------------------------------------------------------------------------------------------|
|-------------------------------------------------------------------------------------------------|
   
                                                                                              
|--------------------------------------------------------------------|
|--15b---12--------------------------12br--12b-12b--12b-12b-12b------|
|------------14-11---------------------------------------------------|
|------------------14p12-14p12---------------------------------------|
|--------------------------------------------------------------------|
|--------------------------------------------------------------------|
   
                                                                           
|-------------------------------------------------------------------------|
|--12-15p12----12-15p12----12h15p12----12h15p12----12h15p12----12-15b-----|
|-----------14----------14----------14----------14----------14------------|
|-------------------------------------------------------------------------|
|-------------------------------------------------------------------------|
|-------------------------------------------------------------------------|


|--------------------------------------------|
|--17b(-17-17-17-17-17-17r)-15-17brp15-17~---|
|--------------------------------------------|
|--------------------------------------------|
|--------------------------------------------|
|--------------------------------------------|


Chorus


Outro Solo:
|---------------------------------------------------------------------------------|
|-----------------------19------/-----10b-----(10-10-10-10-10-10-10-10r)----------|
|--2b------r-------------------------------------------------------------9br-7~---|
|---------------------------------------------------------------------------------|
|---------------------------------------------------------------------------------|
|---------------------------------------------------------------------------------|

|-------------------------------------------------------------------------------------------|
|-----------12-15brp12-12h15-15b-------15b-15-12----12-15p12----12-15p12----12-15p12----12--|
|---9-11-14--------------------------------------14----------14----------14----------14-----|
|-------------------------------------------------------------------------------------------|
|-------------------------------------------------------------------------------------------|
|-------------------------------------------------------------------------------------------|

            *gradual release
|----------------------------------------------------------------------------7---------------------|
|--17b-(17-17-17-17-17-17-17-17-17-17-17r)--17-15----15-17-17b--r----------7---7-10-7--------------|
|-------------------------------------------------16--------------------9b------------9-7---7-9b---|
|-----------------------------------------------------------------------------------------9--------|
|--------------------------------------------------------------------------------------------------|
|--------------------------------------------------------------------------------------------------|

|-----------------------------------------------------------------------|
|--------------15b--15-12-15-12----12-15p12----12-15p12----12-15b-------|
|-7-7--7-7~---------------------14----------14----------14--------------|
|-----------------------------------------------------------------------|
|-----------------------------------------------------------------------|
|-----------------------------------------------------------------------|

|------------------------------------------------------------------------------------------|
|--17btr-17b-17b-17b--15-17p15----15-----------------------------------------15b-15b--15---|
|------------------------------16----16-14-11\------11tr\\\----11-11-14p11------------14b--|
|------------------------------------------------------------------------------------------|
|------------------------------------------------------------------------------------------|
|------------------------------------------------------------------------------------------|

|----------------------------------------------------------------------------|
|----------------------------------------------------------------------------|
|----------------------------------------------------------------------------|
|----12-12-12-14p12----12-12-14p12----12-12-14p12----12h14p12----12h14p12----|
|-------------------14-------------14-------------14----------14----------14-|
|----------------------------------------------------------------------------|

|-------------------------------------------------------------------------------------------------|
|-------------------------------15-15btr-r----17-17p15-17p15--------15b--12-15~----15b--12-15~----|
|----------------------------11------------------------------16\----------------------------------|
|-12h14p12----12h14p12----12----------------------------------------------------------------------|
|----------14----------14-------------------------------------------------------------------------|
|-------------------------------------------------------------------------------------------------|

|------------------18b----18brb(18)rb---18b-----------------------|
|--15b--12-15~------------------------------------15b-12----12----|
|--------------------------------------------------------14-------|
|-----------------------------------------------------------------|
|-----------------------------------------------------------------|
|-----------------------------------------------------------------|

|-------------------------------------------------------------|
|--------------------------------------7-7-10-10-12-15-17p15--|
|-----7-9--7-9--7~\---7-9-7-9-7-9-7-9-------------------------|
|-------------------------------------------------------------|
|-------------------------------------------------------------|
|-------------------------------------------------------------|

|----------------------------------------------------------------------------|
|----15----------------------------17p15--------15---------------------------|
|-16----16-14----14-16p14----14-16-------16-14-----14-14h16p14---------------|
|-------------16----------16-----------------------------------14-16---------|
|---------------------------------------------------------------------14~----|
|----------------------------------------------------------------------------|

|-------------------------------|
|-------------------------------|
|--------------------7~---\-----|
|----16b------------------------|
|-------------------------------|
|-------------------------------|



************************************
| /   slide up
| \   slide down
| h   hammer-on
| p   pull-off
| ~   vibrato
| +   harmonic
| x   Mute note
| b   Bend
| pb  Pre-bend
| br  Bend release
| pbr Pre-bend release
| brb Bend release bend
| ()  strike note while bent
| tr  tremelo pick
************************************
Добавлено: 14.07.2013
Вам также может быть интересно:
Другие материалы по этой песне:
  • Аккорды и текст

Страница создана 14.07.2013
http://primanota.ru/mad-season/locomotive-chords.htm
Привет, Гость.
Предлагаем пройти революционный курс по гитаре.
Подарок от PrimaNota.Ru, забирай!