PrimaNota.ru - самый крупный в мире бесплатный архив песенных текстов, аккордов, табулатур и нот


Mad River - Hush Julian - таба, видео

Регистрация Запомнить меня
Войти через:  Facebook Google Twitter Vk Yandex Mail.ru

Mad River - Hush Julian - таба, видео

Печатать
Просмотров: 108
Tune down 1 step: DGCFAd

NOTE: Due to the recording being at wrong speed, 
the actual  pitch is even flatter.

 
|----------------0---------------|----------------0---------------|
|------------0-------0-----------|------------0-------0-----------|
|--------0---------------0-------|--------2---------------2-------|
|----2-----------------------2---|----0-----------------------0---|
|0h4-----------------------------|0h4-----------------------------|
|--------------------------------|--------------------------------|

|----------------0---------------|----------------0---------------|
|------------0-------0-----------|------------0-------0-----------|
|--------0---------------0-------|--------2---------------2-------|
|----2-----------------------2---|----0-----------------------0---|
|0h4-----------------------------|0h4-----------------------------|
|--------------------------------|--------------------------------|

|----------------0---------------|----------------0---------------|
|------------0-------0-----------|------------0-------0-----------|
|--------0---------------0-------|--------2---------------2-------|
|----2-----------------------2---|----0-----------------------0---|
|0h4-----------------------------|0h4-----------------------------|
|--------------------------------|--------------------------------|
 Hush                             little

|----------------0---------------|------------2----------------2--|
|------------0-------0-----------|--------3-------3---------------|
|--------0---------------0-------|----4---------------4---4-------|
|----2-----------------------2---|--------------------------------|
|0h4-----------------------------|2-------------------------------|
|--------------------------------|--------------------------------|
 ba              -                by

|------------0---------------3---|------------2-------------------|
|--------1---------------0-------|--------3-------------------0---|
|--------------------0-----------|----2-------------------2-------|
|----2---------------------------|0-------------------2-----------|
|3---------------2---------------|--------------------------------|
|--------------------------------|----------------0---------------|
 You             are              safe                    from

|----------------0---------------|------------0---------------0---|
|------------2-------2-------2---|--------2-------2-------2-------|
|--------2---------------2-------|----2---------------2-----------|
|----2---------------------------|--------------------------------|
|0-------------------------------|0-------------------------------|
|--------------------------------|--------------------------------|
 harm

|------------4---------------4---|------------0---------------0---|
|--------6-------6-------6-------|--------7-------7-------7-------|
|--------------------4-----------|----6---------------6-----------|
|----6---------------------------|7-------------------------------|
|--------------------------------|--------------------------------|
|4-------------------------------|--------------------------------|
 You                       should know                        by

|------------1---------------1---|------------0-------------------|
|--------3-------3-------3-------|--------2-------------------2---|
|----2---------------2-----------|----2-------------------2-------|
|3-------------------------------|2-------------------4-----------|
|--------------------------------|--------------------------------|
|--------------------------------|----------------2---------------|
 now

|--------------------------------|--------------------------------|
|------------3---------------3---|------------0---------------0---|
|--------4---------------4-------|--------2---------------1-------|
|----4---------------4-----------|----2---------------2-----------|
|2---------------0---------------|--------------------------------|
|--------------------------------|0---------------0---------------|
 There's         no               need                    to

|----------------0---------------|------------2-------------------|
|------------0-------0-----------|--------3-------------------0---|
|--------0---------------0-------|----2-------------------2-------|
|----2-----------------------2---|0-------------------2-----------|
|0h4-----------------------------|--------------------------------|
|--------------------------------|----------------0---------------|
 cry

|----------------0---------------|----------------4---------------|
|------------0-------0-----------|------------0-------0-----------|
|--------2---------------2-------|--------2---------------2-------|
|----0-----------------------0---|----0-----------------------0---|
|0h4-----------------------------|0h4-----------------------------|
|--------------------------------|--------------------------------|


|5^------------------------------|--------------------------------|
|2^------------------------------|--------------------------------|
|2^------------------------------|--------------------------------|
|2^------------------------------|--------------------------------|
|0^------------------------------|--------------------------------|
|--------------------------------|--------------------------------|

Добавлено: 05.03.2012
Другие материалы по этой песне:
  • Аккорды и текст

Страница создана 05.03.2012
http://primanota.ru/mad-river/hush-julian-chords.htm
Привет, Гость.
Предлагаем пройти революционный курс по гитаре.
Подарок от PrimaNota.Ru, забирай!