PrimaNota.ru - самый крупный в мире бесплатный архив песенных текстов, аккордов, табулатур и нот


Mad Caddies - No S? - аккорды и текст, таба, видео

Регистрация Запомнить меня
Войти через:  Facebook Google Twitter Vk Yandex Mail.ru

Mad Caddies - No S? - аккорды и текст, таба, видео

Печатать
Просмотров: 102
Уроки эстрадного вокала в Санкт-Петербурге
No S?
Mad Caddies
Intro:		[e:-------------------------------
B:-------------------------------
G:-------5----5-5-5-7----5-5-7-7-
D:-5-----5----5-5-5-7----5-5-7-7-
A:-5-----3----3-3-3-5----3-3-5-5-
E:-3-----------------------------]
                              x 2
[e:-3-3-3-3--0---0-0-0-0--0---3-3-3-3--0--2-2-2-1-0-
B:-3-3-3-3--0---1-1-1-1--0---3-3-3-3--0--3-3-3-2-1-
G:-4-4-4-4------0-0-0-0------4-4-4-4-----2-2-2-1-0-
D:-5-5-5-5-------------------5-5-5-5---------------
A:-------------------------------------------------
E:-------------------------------------------------]

Verse 1: here's the chords, figure out the rhythem yourself
[e:--3---0----3---2-2-2-1-0----
B:--3---1----3---3-3-3-2-1----
G:--4---0----4---2-2-2-1-0----
D:--5--------5----------------
A:----------------------------
E:----------------------------]

Chorus: Same chords as first line of Intro, just play them longer
there's palm muting to, but I didn't write it in.

Bridge thing: Gtr. 2 play chords written in above
   G5                        F5
[e:-------------------------------------------------------------------
B:-------------------------------------------------------------------
G:--------4-4-4-7-7-------5-5-5-4-4--------4-4-4-5-5-7-7-7-5-5-5-4-4-
D:--5-5-5-----------5-5-5------------3-3-3---------------------------
A:-------------------------------------------------------------------
E:-------------------------------------------------------------------]
   E5                   ditto
[e:-------------------------------------------
B:-------------------------------------------
G:-------4-4-4-5-5-4-4-4---------------------
D:-2-2-2-----------------5-5-5--5-5-5--7-7-7-
A:------------------------------3-3-3--5-5-5-
E:-------------------------------------------]

Repeat those last four bars

Pre-Verse thing:
[e:-3------------0-------------0-----------2--
B:-3--hold------1----hold-----2---hold----3--
G:-4------------0-------------2-----------2--
D:-5------------2-------------2-----------0--
A:--------------3-------------0--------------
E:-------------------------------------------]

Verse 2: same chords as verse 1, but different ryhthem

Repeat Chorus

Bridgesolo thing Gtr. 2 play verse chords again

[e---------------------------------------------------------------------
B---------------------------------------------------------------------
G*--------------------------9-10-12-9h10p9----9-----------------------
D-----9-10-12-10-9----9--10----------------10-------9-10-12-10-9----9-
A*-10--------------10----------------------------10--------------10---
E---------------------------------------------------------------------

e:--------------------------
B:--------------------------
G:----11-12-14-----10----9-*
D:-12-----------11----10----
A:-------------------------*
E:--------------------------]

Cowboy thing:
[e-----------------------------------------------------------------------
B------x-10-x-12-x-10----------x-15-x-17-x-15----------x-10-x-12-x10----
G*/12----------------x-12-/17----------------x-17-/12---------------x12-
D-----------------------------------------------------------------------
A*----------------------------------------------------------------------
E-----------------------------------------------------------------------]

1.~~~~~~~~~~~~~~~~~~~~~~~~ 2.~~~~~~~~~~~~~~~~~~~~~~~~~~~~~~~
[e:------x-12-x-14-x-12---------------------------------------
B:--/15----------------x-15----------------------------------
G:-------------------------*---------------------------------
D:---------------------------12h14p12------------------------
A:-------------------------*----------14-12-124p1210-12^-10-
E:-----------------------------------------------------------]

Repeat Verse 2 I think, I may be missing something, but I don't have the CD on me
Добавлено: 18.04.2014
Другие материалы по этой песне:
  • Аккорды и текст

Страница создана 02.08.2013
http://primanota.ru/mad-caddies/no-s-chords.htm
Привет, Гость.
Предлагаем пройти революционный курс по гитаре.
Подарок от PrimaNota.Ru, забирай!