PrimaNota.ru - самый крупный в мире бесплатный архив песенных текстов, аккордов, табулатур и нот


Mad Caddies - Goleta - аккорды и текст, видео

Регистрация Запомнить меня
Войти через:  Facebook Google Twitter Vk Yandex Mail.ru

Mad Caddies - Goleta - аккорды и текст, видео

Печатать
Просмотров: 96
Уроки эстрадного вокала в Санкт-Петербурге
Goleta
Mad Caddies
(bass)

Intro:		[G----------------------------
D----------------------------
A-3--3--33------22222---23---
E---3--3----3-2----------33--

VErSE:		G---------------------------
D---------------------------
A-3>------------33333----3--
E-----4>-6>-3>-----------33-]

BrIDGE:

PLAy VErSE

BrIDGE 2:	[G----------------------------
D-5---5---5--5---5--3--------
A------------------------6-5-
E----------------------------]

TBEn Go INTO Intro
Добавлено: 12.04.2014
Другие материалы по этой песне:

Страница создана 11.04.2012
http://primanota.ru/mad-caddies/goleta-chords.htm
Привет, Гость.
Предлагаем пройти революционный курс по гитаре.
Подарок от PrimaNota.Ru, забирай!