PrimaNota.ru - самый крупный в мире бесплатный архив песенных текстов, аккордов, табулатур и нот


Mad Caddies - Bridges - текст песни, бас-таба, видео

Регистрация Запомнить меня
Войти через:  Facebook Google Twitter Vk Yandex Mail.ru

Mad Caddies - Bridges - текст песни, бас-таба, видео

Печатать
Просмотров: 96
Intro pt 1
> hold note
G|------------------------|
D|------------------------|
A|------------------------|
E|-3>--/9>--8>---/11<-----|

Intro pt 2
* play each note 8 times
G|----------------|
D|-------1*-------|
A|----1*----3*----|
E|-3*-------------|

Verse
G|---------------|
D|-------1*------|
A|----1*----3*---| x2
E|-3*------------|

Pre-chorus
G|---------------      G|------------------|
D|---11----------      D|----11------------|
A|-------11-33--- x2   A|-------11-33-55<--|
E|-33------------      E|-33---------------|

Chorus
G|-----------------|
D|-1-100-----------|
A|-----------------|
E|--------3xxx33---|

G|---------------|
D|-1111----0-0---|
A|-----1111------|
E|---------------|

G|-----------------|
D|-1-100-----------|
A|-----------------|
E|--------3xxx33---|

G|------------------|
D|-------1-1-1-1<---|
A|-3-3-3------------|
E|------------------|

Solo
G|--------------|
D|-------1*-----|
A|----1*----3*--|
E|-3*-----------|

Verse
G|---------------|
D|-------1*------|
A|----1*----3*---| x2
E|-3*------------|

Pre-chorus
G|---------------      G|------------------|
D|---11----------      D|----11------------|
A|-------11-33--- x2   A|-------11-33-55<--|
E|-33------------      E|-33---------------|

Chorus
G|-----------------|
D|-1-100-----------|
A|-----------------|
E|--------3xxx33---|

G|---------------|
D|-1111----0-0---|
A|-----1111------|
E|---------------|

G|-----------------|
D|-1-100-----------|
A|-----------------|
E|--------3xxx33---|

G|------------------|
D|-------1-1-1-1<---|
A|-3-3-3------------|
E|------------------|

~~~play note a lot
Interlude
G|---------------|
D|---------------|
A|---------------|
E|-3333333333~~~~

when guitar starts playing
G|---------------|
D|-------1*------|
A|----1*----3*---| x2
E|-3*------------|

Pre-chorus
G|---------------      G|------------------|
D|---11----------      D|----11------------|
A|-------11-33--- x2   A|-------11-33-55<--|
E|-33------------      E|-33---------------|

Chorus
G|-----------------|
D|-1-100-----------|
A|-----------------|
E|--------3xxx33---|

G|---------------|
D|-1111----0-0---|
A|-----1111------|
E|---------------|

G|-----------------|
D|-1-100-----------|
A|-----------------|
E|--------3xxx33---|

Outro
>hold and fade out
G|-------------------|
D|-------1--0--------|
A|-3-3-3-------------|
E|------------3>-----|

I don't think i messed up at all except in the second section of the
chorus the second D at the end might be a G. It dosesn't really matter.

	-Picks r4 Dicks-
Добавлено: 02.05.2012
Другие материалы по этой песне:

Страница создана 08.03.2012
http://primanota.ru/mad-caddies/bridges-chords.htm
Привет, Гость.
Предлагаем пройти революционный курс по гитаре.
Подарок от PrimaNota.Ru, забирай!