PrimaNota.ru - самый крупный в мире бесплатный архив песенных текстов, аккордов, табулатур и нот


Mad Caddies - Booze Cruise - текст песни, бас-таба, видео

Регистрация Запомнить меня
Войти через:  Facebook Google Twitter Vk Yandex Mail.ru

Mad Caddies - Booze Cruise - текст песни, бас-таба, видео

Печатать
Просмотров: 108
BOOZE CRUISE by Mad Caddies. Album : Rock the Plank (2001)
Funny and catchy singalong! !Tune E-string to D!
:
# intro #
G-------------------------------------------------------------------|
D-------------------------------------------------------------------|
A---00-04-20---20---00-04-2022-42---00-04-20---20---00-04-20----5---|
D-----------44----2---------------4---------44----2---------2-------|
:
# verse # *=play 5-7X #=play 2-4X %=pause
G---------------#---------------------------------------------------%|
D----*---*---*--2----*-----------*---*---*---*---*---*-----------*--%|
A---0---0---5-----#-0----*---*--5---0---0---5---7---0----*---*--5---%| 
D-----------------2-----4---2---------------------------5---2-------%|
:
# chorus # *=play 5-7X
G-------------------------------------------------------------------|
D----*---*---*---*---------------*---*---*---*---*------------------|
A---0---0---4---4----*---*---*--5---0---0---4---4----*---*------5---|
D-------------------4---4---2-----------------------4---4---2-------|
:
Then play intro.
:
# verse2 # *=play 5-7X
G-------------------------------------------------------------------%|
D----*---*---*---*---*-----------*---*---*---*---*---*-----------*--%|
A---0---0---5---7---0----*---*--5---0---0---5---7---0----*---*--5---%| 
D-----------------------4---2---------------------------5---2-------%|
:
Then play chorus (!end with first note!).
:
# bridge # *=play 12X #=play 8X                                     >
G-----------6---------------7---------------9---------------7------->
D---7---------------5---------------7---------------5--------------->
A------------------------------------------------------------------->
D------------------------------------------------------------------->
>bridge
>----*------6*-------*------7*-------*-------*-------*---------------|
>---7---------------5---------------7-------2-------5--------#-------|
>-----------------------------------------------------------5--------|
>----------------------------------------------------------------0---|
:
Then play chorus (!end with first note!).
Добавлено: 23.02.2012
Другие материалы по этой песне:
  • Аккорды и текст

Страница создана 23.02.2012
http://primanota.ru/mad-caddies/booze-cruise-chords.htm
Привет, Гость.
Предлагаем пройти революционный курс по гитаре.
Подарок от PrimaNota.Ru, забирай!