PrimaNota.ru - самый крупный в мире бесплатный архив песенных текстов, аккордов, табулатур и нот


Mad At Gravity - Find The Words - текст песни, бас-таба, видео

Регистрация Запомнить меня
Войти через:  Facebook Google Twitter Vk Yandex Mail.ru

Mad At Gravity - Find The Words - текст песни, бас-таба, видео

Печатать
Просмотров: 115
Verse (riff1) 
g|-----------------------1*---------------------h--------1*------63|
d|1*----------1h3--4*----------4*--1*----------13--4*--------------|
a|-----------------------------------------------------------------|
d|-----------------------------------------------------------------|
Chorus1 (RIFF2)
g|----------------------------|
d|----------------------------|
a|6*-4*-------6h8h6h4h6-------|x3
d|----------8*-----------6--8-|(x3is quiet)

RIFF1x2
RIFF2x2

g|----------------------------|
d|----------------------------|
a|9--8--6*----6h8h6h4h6-------|x2
d|-----------------------6--8-|
Riff3
g|----------------------------------------------------------------|
d|44444444444444441111111111111111----------------1111111111111111|
a|--------------------------------4444444444444444----------------|
d|----------------------------------------------------------------|
Riff4
g|--------------------------------------------------------|
d|-1---1--------------1------------1111-1-----------------|
a|--------111333444444-431111333444-------1113334444443431|
d|--------------------------------------------------------|
Pre-Chorus 
g|---------------- g|------| g|-----------------|
d|---------------- d|------| d|4--6--3--1--1---1|
a|9*-8*-6*-6*-6h4- a|6*--6*| a|-------------4---|
d|---------------- d|------| d|-----------------|
Chorus2
g|----------------------------|
d|----------------------------|
a|6*-4*-------6h8h6h4h6-------|x2
d|------8*---------------6--8-|

g|--------------------------------|
d|--------------------------------|
a|---------1--11------------------|
d|1--3--4---------1--3--4--6--66--|
Chorus3 
g|--------------------------------------------------------------------|
d|--------------------------------------------------------------------|
a|------------6h8h6h4h6*--------------9*-8*-6*-6*-64--6*--------------|
d|1--3--4--6------------8*---------------------------6*-8*------------|
Ending
g|----------------------------------|
d|----------------------------------|
a|6*----------6h8h6h4h6-----------4-|
d|-----------------------6--8-------|
Добавлено: 24.02.2012
Другие материалы по этой песне:
  • Аккорды и текст

Страница создана 24.02.2012
http://primanota.ru/mad-at-gravity/find-the-words-chords.htm
Привет, Гость.
Предлагаем пройти революционный курс по гитаре.
Подарок от PrimaNota.Ru, забирай!