PrimaNota.ru - самый крупный в мире бесплатный архив песенных текстов, аккордов, табулатур и нот


Mackenzie Davis The Awkward Moment - After Youve Gone - аккорды и текст, видео

Регистрация Запомнить меня
Войти через:  Facebook Google Twitter Vk Yandex Mail.ru

Mackenzie Davis The Awkward Moment - After Youve Gone - аккорды и текст, видео

Печатать
Просмотров: 133
After Youve Gone
Mackenzie Davis The Awkward Moment
-------------------------------------------------------------------------------
                            After You've Gone - Mackenzie Davis
-------------------------------------------------------------------------------
Tabbed by: Benoit
E-mail:benoitsmusic@gmail.com

This is the version from the movie The Awkward Moment or Are we officially Dating.
Popularised of course by Ella Fitzgerald and Nina Simone. 

Its a tricky Tune to make them sound alike if you don't play the proper Chords. 
Listed Below are said chords. 

( ) means optional x means don't play 

Some chords can be made simpler if you want, A13 for A7, D9 for D7, C7M   for C...


Since its Jazz I won't say its %100 correct but its very close. 

Key of G
Time signature 4/4

Tuning: STANDARD

    G    A13    E-   B7  D9    D-7  G7   C7M    F   G7M     E7   B-7b5  Bdim7  A-7   

e|--3---(7)-----7----7---(5)----5----3----3-----1-----x------x----x------------------|
B|--3----7------8----7----5-----6----3----5-----1-----3------5----6------6-----5---|
G|--4----6------9----8----5-----5----4----4-----2-----4------7----7------7-----5---|
D|--5----5------9----7----4-----7----3----5-----3-----4------6----7------6-----5---|
A|--5----x------7----9----5-----5----5----3-----3-----x------7----x------x-----x----|
E|--3----5-----------7---------------3----------1-----3-----------7------7-----5- |


    B-13  C#dim  E-7   G#13    G6   D13    D7

e|---3-----------------(6)-----3-----7---------------------------------------------|
B|---3------5-----5-----6------5-----5------3---------------------------------------|
G|---2------3-----3-----5------4-----5------5---------------------------------------|
D|---x----- 5-----5-----4------X-----4------4----------------------------------------|
A|---2------4-----5-----x------5-----5------5---------------------------------------|
E|----------------------4------3-----------------------------------------------|



Intro:

|G        |A13        |E-       |A13      |

|B7       |E- B7 E-   |A13      |D13       |


G                  A13 
  Now listen honey    while i say
E-                                        A13     
  How can you fix your mind to say you're    going away
B7                             E-   B7 E-
  Don't say that we must part
A13                      D13
   Don't break my aching   heart


G
  You know you love me
A13
  True for many years
E-
  Love me night and day
A13
  Can't you see my tears
B7                      E-  B7 E-
  How can you leave me
A13             D7    |G      D-7 G7|       
  Listen while i say


C7M                    F
     After you've gone    and left me crying,
G              G7M            E7
  After you've gone there's no denying,

A13                 D7                    G (STOP)
   You'll feel blue,   you'll feel sad,
                                                            D-7  G7
You'll miss the greatest mama that you ever ever ever had.

C7M                        F
     There'll come a time,     don't you forget it,
G                 G7M       E7               B-7b5
  There'll come a time when you'll regret it.
A-7                       D9
   Some day when you grow lonely,
G                                                  E7       BdIM7
   Your heart will break like mine and you'll want me only,

A-7  B-13         C7M    C#DIM7  E-7              D13   G
     After you've gone,              after you've gone away


Turn Around                           G#13  G6

e|-------------------------------------6-----3--------------------------------|
B|-----6--------5--------5------------ 6-----5-------------------------------------|
G|---7---7--------6---------6----5h7---5-----4--------------------------------------|
D|-------------------------------7-----4-----x----------------------------------|
A|---8-------7--------4----------5-----x-----5-------------------------------------|
E|-------------------------------------4-----3---------------------------------|



Other tabs By Benoit

Auld Triangle - By Glen Hansard (at the Royal Albert Hall)

Any songs you want me to write out suggest away

Добавлено: 10.11.2015
Другие материалы по этой песне:
  • Аккорды и текст

Страница создана 10.11.2015
http://primanota.ru/mackenzie-davis-awkward-moment/after-youve-gone-chords.htm
Привет, Гость.
Предлагаем пройти революционный курс по гитаре.
Подарок от PrimaNota.Ru, забирай!