PrimaNota.ru - самый крупный в мире бесплатный архив песенных текстов, аккордов, табулатур и нот


Macintosh Plus - ライブラリ - таба, видео

Регистрация Запомнить меня
Войти через:  Facebook Google Twitter Vk Yandex Mail.ru

Macintosh Plus - ライブラリ - таба, видео

Печатать
Просмотров: 93

MACINTOSH PLUS-ライブラリ (Track 04)

Standard Tuning: E A D G B E

Intro:I
E  :------------------|------------------|----------------|
B  :------------------|------------------|----------------|
G  :------------------|------------------|----------------|
D  :11-----------10-8-|8h-10--8-6---------|9-----------8-6-|
A  :------------------|------------------|----------------|
E  :------------------|------------------|----------------|

E  :------------------|
B  :------------------|
G  :------------------|
D  :6h-8--6-4/-6------|
A  :------------------|
E  :------------------|


0:14-0:15                 0:31

E  :-------------------|----------------------------|
B  :-------------------|----------------------------|
G  :--------11-13------|----------------------------|
D  :6-/9-11-------------|9-11-9h-11p-9-8h-9p-8-------11-13|
A  :-------------------|-----------------------11-9------|
E  :-------------------|----------------------------|



Take note of the times on the 2nd half

It was hard trying to listen to the different tracks of sax at the same time so I could tab it down.
And the ends are a little wonky from using Tabit and editing so bare with it.

I plan on doing the third track next on this album. 
Добавлено: 03.05.2016
Другие материалы по этой песне:
  • Аккорды и текст

Страница создана 03.05.2016
http://primanota.ru/macintosh-plus/-chords.htm
Привет, Гость.
Предлагаем пройти революционный курс по гитаре.
Подарок от PrimaNota.Ru, забирай!