PrimaNota.ru - самый крупный в мире бесплатный архив песенных текстов, аккордов, табулатур и нот


Machinemade God - Your Own Fault - текст песни, таба, видео

Регистрация Запомнить меня
Войти через:  Facebook Google Twitter Vk Yandex Mail.ru

Machinemade God - Your Own Fault - текст песни, таба, видео

Печатать
Просмотров: 177
-------------------------------------------------------------------------------
                             SONG NAME - Band Name
-------------------------------------------------------------------------------
Tabbed by: MastaTheif
Email: MastaTheif@gmail.com

Tuning:top to bottom C G C F A D
| /  slide up
| \  slide down
| h  hammer-on
| p  pull-off
| ~  vibrato
| +  harmonic
| x  Mute note
| *  Palm Mute
| () Ghost (means just dont hit it quite so hard)


here the quiet intro (repeat a few times):

 D|------------------------------------------------------|
 A|------------------------------------------------------|
 F|----------(5)-----------------------------------------|
 C|------------------------------------------------------|
 G|--1----4------0-0-0-0---------------------------------|
 C|--1----4------0-0-0-0---------------------------------|
PM|             * * * *

then the tricky quite sound:

 D|------------------------------------------------------|
 A|----------------------15----15----11-10---------------|
 F|----10----14----10----------------------10------------|
 C|-12----12----12----12----12----12---------------------|
 G|------------------------------------------------------|
 C|------------------------------------------------------|
PM|

and drums come in:
(repeat 3 times -- change position of picking hand on third time to make it higher 
-- then do the first part of the gap i left as the 4 time)

  alt ending 4                      alt ending 1,2,3
 D|-------------------------------------------------------|
 A|-------------------------------------------------------|
 F|-------------------------------------------------------|
 C|-------------------------------------------------------|
 G|-0-----1-----4-------------------0-----1-----4---------|
 C|-0-000-1-000-4-000-310-410-------0-000-1-000-4-000-+4~-|
PM|   ***   ***   *** *** ***         ***   ***   ***


i know the whole song, but takes too long tabbing out unless i use guitar pro.... if 
could tell me the tempo i can post the whole song on guitar pro so..... do with this for 
haha

============================================================================
Добавлено: 31.05.2012
Другие материалы по этой песне:

Страница создана 07.05.2012
http://primanota.ru/machinemade-god/your-own-fault-chords.htm
Привет, Гость.
Предлагаем пройти революционный курс по гитаре.
Подарок от PrimaNota.Ru, забирай!