PrimaNota.ru - самый крупный в мире бесплатный архив песенных текстов, аккордов, табулатур и нот


Machinemade God - Teeth Vs Curb - текст песни, таба, видео

Регистрация Запомнить меня
Войти через:  Facebook Google Twitter Vk Yandex Mail.ru

Machinemade God - Teeth Vs Curb - текст песни, таба, видео

Печатать
Просмотров: 161
Уроки эстрадного вокала в Санкт-Петербурге
        Artist : Machinemade God
          Song : Teeth vs Curb
         Album : The Infinity Complex
  Copyright (c): (Metal Blade Recods) (2006)
        Tuning : C F A# D# G C


#######################
## h - hammer-on      #
## p - pull-off       #
## * - Squeal         #
## \ - slide down to  #
## / - slipe up to    #
## x - silenced       #
## ()- ghost note     # 
## r - repeat         #
#######################



Intro


|-----------------------------------------------------------------------------------------------------|C
|-----------------------------------------------------------------------------------------------------|G
|-----------------------------------------------------------------------------------------------------|D#
|-----------------------------------------------------------------------------------------------------|A#
|---------------10------------------------------------------------------------------------------------|F
|-(0)-(0)(0)(0)----7-7-(0)-(0)-(0)(0)(0)-(8)(8)(8)(8)8-(10)(10)(10)(10)10-----------------------------|C

this part 4 times + ends with a slide...

|-----------------------------------------------------------------------------------------------------|C
|-----------------------------------------------------------------------------------------------------|G
|-----------------------------------------------------------------------------------------------------|D#
|-----------------------------------------------------------------------------------------------------|A#
|--------10101010-------------------------------------------------------------------------------------|F
|-000000----------7777777777-0000-8888-10101010---------------------------------------------s-l-i-d-e-|C

Vers

|-----------------------------------------------------------------------------------------------------|C
|-----------------------------------------------------------------------------------------------------|G
|-----------------------------------------------------------------------------------------------------|D#
|------------------------------------------------------------------------9--7-------------------------|A#
|---------------10------------------9-----------------------10---------10--9--------------------------|F
|-(0)-(0)-(0)-12---(0)-(0)-(0)(0)-10---(0)-(0)-(0)-(0)(0)-12---(0)-(0)--------------------------------|C


|-----------------------------------------------------------------------------------------------------|C
|-----------------------------------------------------------------------------------------------------|G
|-----------------------------------------------------------------------------------------------------|D#
|----------------------------------12----------------------------------------------10-9---------------|A#
|-------------10---12-------9---10--------------------------9----10--------9-10---------12-10---------|F
|-(8)-(8)-(8)---(8)---(8)(8)-(8)-----(8)-(8)-(8)-(8)-(8)-(8)--(8)---(8)-(8)-----(8)-------------------|C

|-----------------------------------------------------------------------------------------------------|C
|-----------------------------------------------------------------------------------------------------|G
|-----------------------------------------------------------------------------------------------------|D#
|------------------------------------------------------------------------9-7--------------------------|A#
|---------------10------------------9-----------------------10---------10----9------------------------|F
|-(0)-(0)-(0)-12---(0)-(0)-(0)(0)-10---(0)-(0)-(0)-(0)(0)-12---(0)-(0)---------10---------------------|C

four times again

|-----------------------------------------------------------------------------------------------------|C
|-----------------------------------------------------------------------------------------------------|G
|-----------------------------------------------------------------------------------------------------|D#
|-----------------------------------------------------------------------------------------------------|A#
|--------10101010-------------------------------------------------------------------------------------|F
|-000000----------7777777777-0000-8888-10101010-------------------------------------------------------|C


first and last part of the mosher (twice)
|-----------------------------------------------------------------------------------------------------|C
|-----------------------------------------------------------------------------------------------------|G
|-----------------------------------------------------------------------------------------------------|D#
|-----------------------------------------------------------------------------------------------------|A#
|-(4)(4)--(4)(4)--(4)(4)-(4)(4)-(4)(4)-(4)(4)--4------------------------------------------------------|F
|-(2)(2)--(2)(2)--(2)(2)-(2)(2)-(2)(2)-(2)(2)--1------------------------------------------------------|C

middle of the mosher (ends with a slide and turns back into the part before)
|-----------------------------------------------------------------------------------------------------|C
|-----------------------------------------------------------------------------------------------------|G
|-----------------------------------------------------------------------------------------------------|D#
|----------------7-7----------------------------------------------------------------------------------|A#
|-(4)(4)-(4)(4)--------(4)(4)-(4)(4)(4)(4)(4)-4-------------------------------------------------------|F
|-(2)(2)-(2)(2)------0-(2)(2)-(2)(2)(2)(2)(2)-1-------------------------------------------------------|C

bridge
|-----------------------------------------------------------------------------------------------------|C
|-----------------------------------------------------------------------------------------------------|G
|-----------------------------------------------------------------------------------------------------|D#
|-----------------------------------------------------------------------------------------------------|A#
|-----10-12---9-10-----10-12----9-10------------------------------------------------------------------|F
|-0-0-------0------0-0-------0------------------------------------------------------------------------|C


|-----------------------------------------------------------------------------------------------------|C
|-----------------------------------------------------------------------------------------------------|G
|-----------------------------------------------------------------------------------------------------|D#
|-----------------------------------------------------------------------------------------------------|A#
|-------------10-12-------9-10------------10-12----------9-10-----------------------------------------|F
|-(8)-(8)-(8)------(8)-(8)-----(8)-(8)-(8)------(8)-(8)-----------------------------------------------|C


|-----------------------------------------------------------------------------------------------------|C
|-----------------------------------------------------------------------------------------------------|G
|--------------------------------------------------------------------------------------9---7----------|D#
|---------------------------------------------------------------------------------------------9-------|A#
|---------------10---------------------9-------------------------------10--------10-------------------|F
|-(0)-(0)-(0)-12---(0)-(0)-(0)(0)(0)-10--(0)(0)(0)-(0)(0)(0)-(0)-(0)-12---(0)-(0)--(0)--(0)----(0)-10-|C

|-----------------------------------------------------------------------------------------------------|C
|-----------------------------------------------------------------------------------------------------|G
|-----------------------------------------------------------------------------------------------------|D#
|-----------------------------------------------------------------------------------------------------|A#
|-------------10-12-------9-10------------10-12----------10-7-----------------------------------------|F
|-(8)-(8)-(8)------(8)-(8)-----(8)-(8)-(8)------(8)-(8)-----------------------------------------------|C

|-----------------------------------------------------------------------------------------------------|C
|-----------------------------------------------------------------------------------------------------|G
|--------------------------------------------------------------------------------------9--------------|D#
|-----------------------------------------------------------------------------------------------------|A#
|---------------10---------------------9-------------------------------10--------10-------------------|F
|-(0)-(0)-(0)-12---(0)-(0)-(0)(0)(0)-10--(0)(0)(0)-(0)(0)(0)-(0)-(0)-12---(0)-(0)--(0)----------------|C

|-----------------------------------------------------------------------------------------------------|C
|-----------------------------------------------------------------------------------------------------|G
|-----------------------------------------------------------------------------------------------------|D#
|-----------------------------------------------------------------------------------------------------|A#
|-------------10-12-------9-10------------10-12----------9-10-----------------------------------------|F
|-(8)-(8)-(8)------(8)-(8)-----(8)-(8)-(8)------(8)-(8)-----------------------------------------------|C

|-----------------------------------------------------------------------------------------------------|C
|-----------------------------------------------------------------------------------------------------|G
|--------------------------------------------------------------------------------------9---7----------|D#
|---------------------------------------------------------------------------------------------9-------|A#
|---------------10-----------------------9--------------------------------10------10------------------|F
|-(0)-(0)-(0)-12---(0)-(0)-(0)-(0)-10-(0)-(0)-(0)-(0)-(0)-(0)-(0)--12-(0)---(0)(0)--(0)-(0)----(0)-10-|C

|-----------------------------------------------------------------------------------------------------|C
|-----------------------------------------------------------------------------------------------------|G
|-----------------------------------------------------------------------------------------------------|D#
|-----------------------------------------------------------------------------------------------------|A#
|-------------10-12-------9-10------------10-12----------9-10-----------------------------------------|F
|-(8)-(8)-(8)------(8)-(8)-----(8)-(8)-(8)------(8)-(8)-----------------------------------------------|C

mosh
|-----------------------------------------------------------------------------------------------------|C
|-----------------------------------------------------------------------------------------------------|G
|-----------------------------------------------------------------------------------------------------|D#
|-----------------------------------------------------------------------------------------------------|A#
|-------------5-7-8----------(3)(3)(3)(3)(3)(3)(3)(3)(3)(3)(3)(3)--------------5-7-8-------10-8-7h8p7r|F
|-(0)-(0)-(0)-------(0)-(0)--(1)(1)(1)(1)(1)(1)(1)(1)(1)(1)(1)(1)--(0)(0)(0)(0)------(0)(0)-----------|C

|-----------------------------------------------------------------------------------------------------|C
|-----------------------------------------------------------------------------------------------------|G
|-----------------------------------------------------------------------------------------------------|D#
|-----------------------------------------------------------------------------------------------------|A#
|-------------5-7-8----------(3)(3)(3)(3)(3)(3)(3)(3)(3)(3)(3)(3)--------------5-7-8-------10-8-7h8p7r|F
|-(0)(0)(0)(0)-------(0)-(0)-(1)(1)(1)(1)(1)(1)(1)(1)(1)(1)(1)(1)--(0)(0)(0)(0)------(0)(0)-----------|C


this part twice (ends with a squeal)
|-----------------------------------------------------------------------------------------------------|C
|-----------------------------------------------------------------------------------------------------|G
|-----------------------------------------------------------------------------------------------------|D#
|-----------------------------------------------------------------------------------------------------|A#
|----------7-5-7-8-------------------7-8-10\--------------------7-5-7-8-------7----10-----------------|F
|-(0)(0)(0)-------(0)(0)(0)-(0)(0)(0)--------(0)(0)(0)-(0)(0)(0)--------7-8-10-10-8--8-7-8------------|C

breakdown
3 times
|-----------------------------------------------------------------------------------------------------|C
|-----------------------------------------------------------------------------------------------------|G
|-----------------------------------------------------------------------------------------------------|D#
|----------9-7-9-10------------------9-10-12\--------------------9-7-9-10-----------------------------|A#
|----------7-5-7-8-------------------7-8--10\--------------------7-5-7-8--------3-2-------------------|F
|-(0)(0)(0)-------(0)(0)(0)-(0)(0)(0)--------(0)(0)(0)-(0)(0)(0)----------(0)(0)---(0)-4-(0)-1-4-*3---|C

ending

|-----------------------------------------------------------------------------------------------------------|C
|-----------------------------------------------------------------------------------------------------------|G
|-----------------------------------------------------------------------------------------------------------|D#
|----------9-7-9-10------------------9-10-12\--------------------9-7-9-10-----------------------------------|A#
|----------7-5-7-8-------------------7-8--10\--------------------7-5-7-8--------3-2----------3-(6)-(5)-(3)-2|F
|-(0)(0)(0)-------(0)(0)(0)-(0)(0)(0)--------(0)(0)(0)-(0)(0)(0)----------(0)(0)---(0)-4-(0)-1-(4)-(3)-(1)-0|C


Добавлено: 09.04.2012
Вам также может быть интересно:
Другие материалы по этой песне:

Страница создана 09.04.2012
http://primanota.ru/machinemade-god/teeth-vs-curb-chords.htm
Привет, Гость.
Предлагаем пройти революционный курс по гитаре.
Подарок от PrimaNota.Ru, забирай!