PrimaNota.ru - самый крупный в мире бесплатный архив песенных текстов, аккордов, табулатур и нот


Machine Head - From This Day - аккорды и текст, таба, бас-таба, драм-таба, видео

Регистрация Запомнить меня
Войти через:  Facebook Google Twitter Vk Yandex Mail.ru

Machine Head - From This Day - аккорды и текст, таба, бас-таба, драм-таба, видео

Печатать
Просмотров: 376
Авторы музыки: Machine Head
Авторы текста: Robert Flynn
From This Day
Machine Head
Author/Artist: Machine Head
   Title: From This Day
   Album: The Burning Red
   Transcribed by: Rob H.
   Email: skate48180@aol.com

   intro x4





   -|-----------------------------------------------------------|
   -|-----------------------------------------------------------|
   -|--4-5-------------4-5-----------4-5------------4-5-----11v-|
   -|------5-9-8-----------5-9-8v--------5-9-8----------5-9-----|
   -|2-----------8---2-------------2-----------8--2-------------|
   -|0---------------0-------------0--------------0-------------|


   -|---------------------------|----------------|
   -|---------------------------|----------------|
   -|---------------------------|----------------|repeat
   -|---------------------------|----------------|
   -|-2-2--2-2--2-2--2-2-4-5-5-5|2-2-------------|
   -|-0-0--0-0--0-0--0-0-2-3-3-3|0-0-5-8-7-6-5-4-|

   verse
   -|-------------|
   -|-------------|
   -|-------------|
   -|-------------|
   -|-2-2--2-2-2-2|
   -|-0-0--0-0-0-0|

   chorus
   ---------------------------|-------------------------|------------------------
   ---------------------------|-------------------------|------------------------
   ---------------------------|-------------------------|------------------------
   ---------------------------|-------------------------|------------------------
   -2-2--2-2--2-2--2-2-4-5-5-5|-5-5--5-5--5-5--5/6/7-7-7|-7-7--7-7--7-7--7/8/9-9-
   -0-0--0-0--0-0--0-0-2-3-3-3|-3-3--3-3--3-3--3/4/5-5-5|-5-5--5-5--5-5--5/6/7-7-

   interlude 
   x7 then
   -|------|-----------|
   -|------|-----------|
   -|------|-----------|
   -|------|-----------|
   -|-2-4-5|-2-5-4-5-4-|
   -|-0-2-3|-0-3-2-3-2-|

   email me comments or corrections
Добавлено: 26.06.2012
Другие материалы по этой песне:

Страница создана 24.02.2012
http://primanota.ru/machine-head/from-this-day-chords.htm
Привет, Гость.
Предлагаем пройти революционный курс по гитаре.
Подарок от PrimaNota.Ru, забирай!