PrimaNota.ru - самый крупный в мире бесплатный архив песенных текстов, аккордов, табулатур и нот


Machine Head - Bush - таба, видео

Регистрация Запомнить меня
Войти через:  Facebook Google Twitter Vk Yandex Mail.ru

Machine Head - Bush - таба, видео

Печатать
Просмотров: 133
Intro and "Fill 1"
||----------------------------||
||----------------------------||
||----------------------------||
||-11-11-13-13-13/14-14/16-16-||
||----------------------------||
||-9--9--11-11-11/12-12/14-14-||


Fill 2
||----------------------------|----------------------------|
||----------------------------|----------------------------|
||----------------------------|----------------------------|
||-11-11-13-13-13/14-14/16-16-|-11-11-13-13-13/14-14/16-16-|
||----------------------------|----------------------------|
||-9--9--11-11-11/12-12/14-14-|-9--9--11-11-11/12-12/14-14-|

------------------------------------------------------------||
14-14-14-14\12-12-12-12/14-14-14-14\12-12-12-12/14-14-14-14\||
13-13-13-13\11-11-11-11/13-13-13-13\11-11-11-11/13-13-13-13\||
------------------------------------------------------------||
------------------------------------------------------------||
------------------------------------------------------------||


While you keep doing Fill 1 another guitar needs to start doing this:
*-(drums in)
||------|------|------|-----|--
||------|------|------|-----|--
||------|--6---|-10---|-6---|--
||-11---|--7---|-11---|-7---|--
||-11---|--7---|-11---|-7---|--
||-9----|--5---|-9----|-5---|--

*-(stop Fill 1)
--------------------------------------------------------------|
--------------------------------------------------------------|
10-10-------10---10-10---------10-10-------10---10-10---------|
11-11-x-x-x-11---11-11-x-x-x-x-11-11-x-x-x-11---11-11-x-x-x-x-|
11-11-x-x-x-11---11-11-x-x-x-x-11-11-x-x-x-11---11-11-x-x-x-x-|
9--9--x-x-x-9----9--9--x-x-x-x-9--9--x-x-x-9----9--9--x-x-x-x-|

----------------------------------------------------|
----------------------------------------------------|
6-6-------6---6-6---------6-6-------6---6-6---------|
7-7-x-x-x-7---7-7-x-x-x-x-7-7-x-x-x-7---7-7-x-x-x-x-|
7-7-x-x-x-7---7-7-x-x-x-x-7-7-x-x-x-7---7-7-x-x-x-x-|
5-5-x-x-x-5---5-5-x-x-x-x-5-5-x-x-x-5---5-5-x-x-x-x-|

*-(begin Fill 2 on second guitar)
--------------------------------------------------------------|
--------------------------------------------------------------|
10-10-------10---10-10---------10-10-------10---10-10---------|
11-11-x-x-x-11---11-11-x-x-x-x-11-11-x-x-x-11---11-11---------|
11-11-x-x-x-11---11-11-x-x-x-x-11-11-x-x-x-11---11-11---------|
9--9--x-x-x-9----9--9--x-x-x-x-9--9--x-x-x-9----9--9--x-x-x-x-|

----------------------------------------------------|
----------------------------------------------------|
6-6-------6---6-6---------6-6-------6---6-6---------|
7-7-x-x-x-7---7-7-x-x-x-x-7-7-x-x-x-7---7-7-x-x-x-x-|
7-7-x-x-x-7---7-7-x-x-x-x-7-7-x-x-x-7---7-7-x-x-x-x-|
5-5-x-x-x-5---5-5-x-x-x-x-5-5-x-x-x-5---5-5-x-x-x-x-|

Then the vocals start with the "Breathe in, breathe out" stuff and you start
that main riff over again. Then the lead bit over the first chorus ("Got a
machinehead, it's better than the rest" etc.) is like so:

|-----------------|
|-4h5-5-5-4h5-5-5-| repeat and crescendo until "I walk from my machine..." etc.
|-----------------|
|-----------------|
|-----------------|
|-----------------|
Добавлено: 20.07.2013
Другие материалы по этой песне:

Страница создана 20.07.2013
http://primanota.ru/machine-head/bush-chords.htm
Привет, Гость.
Предлагаем пройти революционный курс по гитаре.
Подарок от PrimaNota.Ru, забирай!