PrimaNota.ru - самый крупный в мире бесплатный архив песенных текстов, аккордов, табулатур и нот


Macdonald Duck Eclair - Clarion - таба, видео

Регистрация Запомнить меня
Войти через:  Facebook Google Twitter Vk Yandex Mail.ru

Macdonald Duck Eclair - Clarion - таба, видео

Печатать
Просмотров: 205
Уроки эстрадного вокала в Санкт-Петербурге
1.

e|------------------------|
b|------------------------|
G|-777-9--9--9-9-9-9-9-9--|
D|-555-10-10-101010101010-| x4
A|-777-8--8--8-8-8-8-8-8--|
E|------------------------|

2.

e|----------------------------------------------------------|
b|----------------------------------------------------------|
G|-9-9-9-9-9-9-9-9-9-9-9-9-9-9-9-9-9-9-9-9-9-9-9-9-9-9-9-9--|
D|-10101010101010101010101010101010101010101010101010101010-|
A|-8-8-8-8-8-8-8-8-8-8-8-8-8-8-8-8-8-8-8-8-8-8-8-8-8-8-8-8--|
E|----------------------------------------------------------|

3.

e|------------------------------------------------------------------------------------------------------|
b|--------------------------------------------------------------------------10-10-101010-10-1010-101010-|
G|-9--9--9-9-9--9--9-9--9-9-9--7-7-777-7-77-777-9--9--9-9-9--9--9-9--9-9-9--9--9--9-9-9--9--9-9--9-9-9--|
D|-10-10-101010-10-1010-101010-5-5-555-5-55-555-10-10-101010-10-1010-101010-10-10-101010-10-1010-101010-| x2
A|-8--8--8-8-8--8--8-8--8-8-8--7-7-777-7-77-777-8--8--8-8-8--8--8-8--8-8-8--8--8--8-8-8--8--8-8--8-8-8--|
E|------------------------------------------------------------------------------------------------------|

4.

e|--------------------------------------------------------------------------------|
b|--------------------------------------------------------------------------------|
G|-9--9--9-9-9--9--9-9--9-9-9--7-7-777-7-77-777-4-4-444-4-44-444-5-5-555-5-55-555-|
D|-10-10-101010-10-1010-101010-5-5-555-5-55-555-5-5-555-5-55-555-5-5-555-5-55-555-| x2
A|-8--8--8-8-8--8--8-8--8-8-8--7-7-777-7-77-777-0-0-000-0-00-000-3-3-333-3-33-333-|
E|--------------------------------------------------------------------------------|

5.

e|--------------------------------------|
b|--------------------5-5-555-----------|
G|-9--9--9-12-7-7-7-9-5-5-555-5-5-5-555-|
D|-10-10------5-5-----------------------| x2 keep chords ringing when playing melody.
A|-8--8-------7-7-----3-3-333-3-3-3-333-|
E|--------------------------------------|

6.

e|----------------------------------|
b|----------------------------------|
G|-9-9-9-9-9-9-9-9-1212121212121212-|
D|-10101010101010101010101010101010-| x1
A|-8-8-8-8-8-8-8-8-8-8-8-8-8-8-8-8--|
E|----------------------------------|

7.

e|------------------------------------------------------------------------------------------------------|
b|--------------------------------------------------------------------------10-10-101010-10-1010-101010-|
G|-9--9--9-9-9--9--9-9--9-9-9--7-7-777-7-77-777-9--9--9-9-9--9--9-9--9-9-9--9--9--9-9-9--9--9-9--9-9-9--|
D|-10-10-101010-10-1010-101010-5-5-555-5-55-555-10-10-101010-10-1010-101010-10-10-101010-10-1010-101010-| x2
A|-8--8--8-8-8--8--8-8--8-8-8--7-7-777-7-77-777-8--8--8-8-8--8--8-8--8-8-8--8--8--8-8-8--8--8-8--8-8-8--|
E|------------------------------------------------------------------------------------------------------|

Play 3, 5x4,

8.

e|----------------------------------------------------------------------------------|
b|-12121212121212121212121212121212121212121212121212121212121212121212121212121212-|
G|----------------------------------------------------------------------------------|
D|----------------------------------------------------------------------------------|
A|----------------------------------------------------------------------------------|
E|----------------------------------------------------------------------------------|

e|------------------------------------------------------------------------------|
b|-------------------12h13h15----------12h13p12-15--13h15p13-12--13-12h13-12-12-|
G|----------11h12h14----------11h12h14------------------------------------------|
D|-11h12h14---------------------------------------------------------------------|
A|------------------------------------------------------------------------------|
E|------------------------------------------------------------------------------|

e|--------------------------------------------------|
b|-------------------12h13h15-13-12-12tr13-15-17----|
G|----------11h12h14--------------------------------|
D|-11h12h14-----------------------------------------|
A|--------------------------------------------------|
E|--------------------------------------------------|
 
9.

    e|-17^----------|
    b|--------------|
GTR G|--------------|
 1  D|--------------| x4
    A|--------------|
    E|--------------|

    e|--------------|
    b|--------------|
GTR G|-9--9--9-9-9--|
 2  D|-10-10-101010-| x4
    A|-8--8--8-8-8--|
    E|--------------|

play 1, 2, 5x4

    e|--------------------------------------------------------------------------------|
    b|--------------------------------------------------------------------------------|
GTR G|-9--9--9-9-9--9--9-9--9-9-9--7-7-777-7-77-777-4-4-444-4-44-444-5-5-555-5-55-555-|
 1  D|-10-10-101010-10-1010-101010-5-5-555-5-55-555-5-5-555-5-55-555-5-5-555-5-55-555-|
    A|-8--8--8-8-8--8--8-8--8-8-8--7-7-777-7-77-777-0-0-000-0-00-000-3-3-333-3-33-333-|
    E|--------------------------------------------------------------------------------|

    e|----------------------|
    b|----------------------|
GTR G|----7-------7-7-5-----|
 2  D|-5-------5------------|
    A|----------------------|
    
    e|--------------------------------------------------------------------------------|
    b|--------------------------------------------------------------------------------|
GTR G|-9--9--9-9-9--9--9-9--9-9-9--7-7-777-7-77-777-4-4-444-4-44-444-5-5-555-5-55-555-|
 1  D|-10-10-101010-10-1010-101010-5-5-555-5-55-555-5-5-555-5-55-555-5-5-555-5-55-555-|
    A|-8--8--8-8-8--8--8-8--8-8-8--7-7-777-7-77-777-0-0-000-0-00-000-3-3-333-3-33-333-|
    E|--------------------------------------------------------------------------------|

    e|----------------------|
    b|----------------------|
GTR G|----7-------4-4-5-----|
 2  D|-5-------5------------|
    A|----------------------|
    E|----------------------|

    e|--------------------------------------------------------------------------------|
    b|--------------------------------------------------------------------------------|
GTR G|-9--9--9-9-9--9--9-9--9-9-9--7-7-777-7-77-777-4-4-444-4-44-444-5-5-555-5-55-555-|
 1  D|-10-10-101010-10-1010-101010-5-5-555-5-55-555-5-5-555-5-55-555-5-5-555-5-55-555-|
    A|-8--8--8-8-8--8--8-8--8-8-8--7-7-777-7-77-777-0-0-000-0-00-000-3-3-333-3-33-333-|
    E|--------------------------------------------------------------------------------|

    e|----------------------|
    b|----------------------|
GTR G|----7-------7-7-5-----|
 2  D|-5-------5------------|
    A|----------------------|

    e|------------------------------------------------------------------------|
    b|------------------------------------------------------------------------|
GTR G|-9--9--9-9-9--9--9-9--9-9-9--7-7-777-7-77-777-4-4-444-4-44-444-55-55-55-|
 1  D|-10-10-101010-10-1010-101010-5-5-555-5-55-555-5-5-555-5-55-555-55-55-55-|
    A|-8--8--8-8-8--8--8-8--8-8-8--7-7-777-7-77-777-0-0-000-0-00-000----------|
    E|------------------------------------------------------------------------|

    e|---------------------|
    b|---------------------|
GTR G|----7-------55-55-55-|
 2  D|-5-------5--55-55-55-|
    A|---------------------|
    E|---------------------|
Добавлено: 13.08.2015
Другие материалы по этой песне:
  • Аккорды и текст

Страница создана 13.08.2015
http://primanota.ru/macdonald-duck-eclair/clarion-chords.htm
Привет, Гость.
Предлагаем пройти революционный курс по гитаре.
Подарок от PrimaNota.Ru, забирай!