PrimaNota.ru - самый крупный в мире бесплатный архив песенных текстов, аккордов, табулатур и нот


Macabre - Youre Dying To Be With Me - таба, видео

Регистрация Запомнить меня
Войти через:  Facebook Google Twitter Vk Yandex Mail.ru

Macabre - Youre Dying To Be With Me - таба, видео

Печатать
Просмотров: 133
Band: Macabre
Album: Murder Metal
Song: You're Dying to Be With Me

Riff 1   x8
e|-------------------------------------------------------------------|
B|-------------------------------------------------------------------|
G|---7---7---7---7---7---7---7---7---7---7---7---7-7-5---5---5-7-8-7-|
D|-----------------------------------------------------7---7---------|
A|-5---5---5---5---5---5---5---5---5---5---5---5---------------------|
E|-------------------------------------------------------------------|

Riff 2   x2
e|-------------------------------------------------|
B|-------------------------------------------------|
G|-----------------2-2-2-2---3-2---2-2-2-2---3-2---|
D|---3---2---0-----2-2-2-2---3-2-6-2-2-2-2---3-2-6-|
A|-5---3---2---1-4-0-0-0-0---1-0-6-0-0-0-0---1-0-6-|
E|-------------------------------4---------------4-|

Riff 1   x6

Riff 2   x6

Riff 1   x4
Добавлено: 25.03.2012
Другие материалы по этой песне:

Страница создана 25.03.2012
http://primanota.ru/macabre/youre-dying-to-be-with-me-chords.htm
Привет, Гость.
Предлагаем пройти революционный курс по гитаре.
Подарок от PrimaNota.Ru, забирай!