PrimaNota.ru - самый крупный в мире бесплатный архив песенных текстов, аккордов, табулатур и нот


Macabre - Fatal Foot Fetish - таба, видео

Регистрация Запомнить меня
Войти через:  Facebook Google Twitter Vk Yandex Mail.ru

Macabre - Fatal Foot Fetish - таба, видео

Печатать
Просмотров: 275
Macabre - Fatal foot fetish ( Murder metal )


Standard tuning

Riff 1
1)-----------------------------------------------------|
2)-----------------------------------------------------|
3)-----------------------------------------------------|
4)--4--6--7--6--4--3--4--6--7--4--6--7--6--4--3--4--6--|  X 4
5)--2--4--5--4--2--1--2--4--5--2--4--5--4--2--1--2--4--|
6)--2--4--5--4--2--1--2--4--5--2--4--5--4--2--1--2--4--|

Riff 2
1)--------------------------------------------------------------|
2)--------------------------------------------------------------|
3)--------------------------------------------------------------|
4)--9--11--12--11--9--8--9--11--12--9--11--12--11--9--8--9--11--| X 2
5)--7--9---10--9---7--6--7--9---10--7--9---10--9---7--6--7--11--|
6)--7--9---10--9---7--6--7--9---10--7--9---10--9---7--6--7--9---|

Riff 3
1)----------------------------------------------|
2)----------------------------------------------|
3)----------------------------------------------|
4)--------------------10--------------------10--|  X 4
5)--9--11--12--11--9--8---9--11--12--11--9--8---|
6)--7--9---10--9---7--8---7--9---10--9---7--8---|


Riff 4 ( "solo" ) 01.08
1)-------------------------------9--11--12--11--9--8--9--11--12--|
2)--7--9--10--9--7--6--7--9--10--7--9---10--9---7--6--7--9---10--|
3)--6--8--9---8--6--5--6--8--9-----------------------------------|
4)---------------------------------------------------------------|
5)---------------------------------------------------------------|
6)---------------------------------------------------------------|

1)--14--16--17--16--14--13--14--16--17--19-21-22-21-19-18-19-21-22--|
2)--12--14--15--14--12--11--12--14--15------------------------------|
3)------------------------------------------------------------------|
4)------------------------------------------------------------------|
5)------------------------------------------------------------------|
6)------------------------------------------------------------------|

1)--12-14-15-14-12-11-12-14-15-12-14-15-14-12-11-12-14---|
2)-------------------------------------------------------|
3)-------------------------------------------------------|
4)-------------------------------------------------------| X 3
5)-------------------------------------------------------|
6)-------------------------------------------------------|
Добавлено: 07.07.2012
Другие материалы по этой песне:
  • Аккорды и текст

Страница создана 07.07.2012
http://primanota.ru/macabre/fatal-foot-fetish-chords.htm
Привет, Гость.
Предлагаем пройти революционный курс по гитаре.
Подарок от PrimaNota.Ru, забирай!