PrimaNota.ru - самый крупный в мире бесплатный архив песенных текстов, аккордов, табулатур и нот


Mac Miller - The Question Live - таба, видео

Регистрация Запомнить меня
Войти через:  Facebook Google Twitter Vk Yandex Mail.ru

Mac Miller - The Question Live - таба, видео

Печатать
Просмотров: 53
Mac Miller mostly plays The Question live with a little guitar riff. During shows he improvises a lot on the
lick. But I tabbed this show (https://www.youtube.com/watch?v=pyTuAJkrFDM), where the more basic version is
played.


Tuning: Standard


Intro: Guitar riff
e|---------------------------------------------------------------------------|
B|---------------------------------------------------------------------------|
G|--------------------------------3~-----------------------------------------|
D|--3-5--5/7--5-3---------3---3-5----5~-----3-5--5/7-5-3------------3-5-3----|
A|5---------------5~--3-5---5-------------5--------------5~-3~---3-5-------5-|
E|---------------------------------------------------------------------------|

e|-------------------------------------6-8-8b10b8-6~-------------------------|
B|----------------------------6~---6-8---------------------------------------|
G|--------3---3-5---3-5/7-5-3------------------------------------------------|
D|----3-5---5-----5------------------------------------3-5--5/7-5-3----3~----|
A|3-5------------------------------------------------5--------------5~-------|
E|---------------------------------------------------------------------------|

e|---------------------------------------------------------------------------|
B|---------------------------------------------------------------------------|
G|---------------------------------------------------------------------------|
D|----3-5-5b7b5-3~-----------------------------------------------------------|
A|3-5------------------------------------------------------------------------|
E|---------------------------------------------------------------------------|

Verse and Hook: chords
e|-3-3---5-----------------------3-3---6-------------------------------------|
B|-3-3---6-----------------------4-4---6-------------------------------------|
G|-4-4---5-----------------------3-3---6-------------------------------------|
D|-5-5---7-----------------------5-5---8-------------------------------------|
A|-5-5---5-----------------------3-3---6-------------------------------------|
E|-3-3---5-----------------------3-3---7-------------------------------------|
(is repeated during the verse and hook)

Riff 

Verse and Hook: chords

Outro: Riff






************************************

| /   slide up
| \   slide down
| h   hammer-on
| p   pull-off
| ~   vibrato
| +   harmonic
| x   Mute note
| b   Bend
| pb  Pre-bend
| br  Bend release
| pbr Pre-bend release
| brb Bend release bend

************************************
Добавлено: 26.12.2015
Другие материалы по этой песне:
  • Аккорды и текст

Страница создана 26.12.2015
http://primanota.ru/mac-miller/question-live-chords.htm
Привет, Гость.
Предлагаем пройти революционный курс по гитаре.
Подарок от PrimaNota.Ru, забирай!