PrimaNota.ru - самый крупный в мире бесплатный архив песенных текстов, аккордов, табулатур и нот


Mac Miller - Another Night Alone - таба, видео

Регистрация Запомнить меня
Войти через:  Facebook Google Twitter Vk Yandex Mail.ru

Mac Miller - Another Night Alone - таба, видео

Печатать
Просмотров: 269
So this is my first tab just figured  Should put this out since they don't have a good 
version of it

Chords played through the song

eb|--------------------------------------------5-------------------------------------|
Bb|-----10-------10-------5--5-------7--7------5-------------------------------------|
Gb|------9--------9-------4--4-------7--7---6--6-------------------------------------|
Db|------9h11p9--11-------6--6-------7--7---7--7-------------------------------------|
Ab|---9--9--------9----4--4--4----5--5--5---7--7-------------------------------------|
Eb|-----------------------------------------5--5-------------------------------------|

Violin like part (Around like 1:40)
eb|--------------------------------------|
Bb|--------10h12—9h10---12h14-12-10-9----|
Gb|----11--------------------------------|
Db|--------------------------------------|
Ab|--------------------------------------|
Eb|--------------------------------------|

Tabbed By The Nages
Добавлено: 11.08.2013
Другие материалы по этой песне:
  • Аккорды и текст

Страница создана 26.07.2013
http://primanota.ru/mac-miller/another-night-alone-chords.htm
Привет, Гость.
Предлагаем пройти революционный курс по гитаре.
Подарок от PrimaNota.Ru, забирай!