PrimaNota.ru - самый крупный в мире бесплатный архив песенных текстов, аккордов, табулатур и нот


Mac Demarco - Passing Out Pieces - таба, бас-таба, видео

Регистрация Запомнить меня
Войти через:  Facebook Google Twitter Vk Yandex Mail.ru

Mac Demarco - Passing Out Pieces - таба, бас-таба, видео

Печатать
Просмотров: 543
Авторы музыки: Mac DeMarco
Авторы текста: Mac DeMarco
Mac DeMarco - Passing Out Pieces
From the album "Salad Days" (Captured Tracks 2014).

Tabbed by Isaac Murguia, January 2014.
Originally uploaded to Ultimate-Guitar.com
Contact: www.youtube.com/user/Goadiroth

INTRO:
  Keys 1 (arranged for guitar)
e|---------------------------|--------------------------|
B|---------------------------|--------------------------|
G|-----5----7----2-----------|----5----7----2-----------|
D|-------7----5----2---3-2-0-|------7----5----2-----0---|
A|-3-------------------------|-3----------------------3-|
E|---------------------------|--------------------------|

  Keys 2 (arranged for guitar)
e|-0000-0000-1111-1111-1111-1111-0000-0000-|      |-0000-0000-|
B|-1111-1111-3333-3333-3333-3333-1111-1111-|      |-1111-1111-|
G|-0000-0000-2222-2222-0000-0000-0000-0000-|      |-0000-0000-|
D|-2222-2222-0000-0000-0000-0000-2222-2222-|      |-2222-2222-|
A|-3333-3333-----------2222-2222-2222-2222-|      |-3333-3333-|
E|---------------------3333-3333-0000-0000-| [x2] |-----------|

VERSE: repeat INTRO

CHORUS:
e|-5-----5-------5-----5---|-------10------10--------10------10-|
B|---3-----3-------3-------|-----8-------8---------8-------8----|
G|-----5-----5-------5---5-|-/10------10--------10------10------|
D|-------------------------|------------------------------------|
A|-------------------------|------------------------------------|
E|-------------------------|------------------------------------|

e|-5-----5-------5-----5---|-------10------10-----------12-------12-|-------12-------12-|
B|---3-----3-------3-------|-----8-------8-----------10-------10----|----10-------10----|
G|-----5-----5-------5---5-|-/10------10-------10/12-------12-------|-12-------12-------|
D|-------------------------|----------------------------------------|-------------------|
A|-------------------------|----------------------------------------|-------------------|
E|-------------------------|----------------------------------------|-------------------|

Repeat INTRO
Repeat CHORUS ..."yeah"

OUTRO: [x3]
  Keys 1 (for guitar)
e|---------------------------|
B|---------------------------|
G|-----5----7----2-----------|
D|-------7----5----2---3-2-0-|
A|-3-------------------------|
E|---------------------------|

  Keys 2 (for guitar)
e|-0000-0000-1111-1111-1111-1111-0000-0000-|
B|-1111-1111-3333-3333-3333-3333-1111-1111-|
G|-0000-0000-2222-2222-0000-0000-0000-0000-|
D|-2222-2222-0000-0000-0000-0000-2222-2222-|
A|-3333-3333-----------2222-2222-2222-2222-|
E|---------------------3333-3333-0000-0000-|

End. Please rate! :)
Добавлено: 25.01.2014
Другие материалы по этой песне:
  • Аккорды и текст

Страница создана 25.01.2014
http://primanota.ru/mac-demarco/passing-out-pieces-chords.htm
Привет, Гость.
Предлагаем пройти революционный курс по гитаре.
Подарок от PrimaNota.Ru, забирай!