PrimaNota.ru - самый крупный в мире бесплатный архив песенных текстов, аккордов, табулатур и нот


Mac Demarco - Me And Jon Hanging On - таба, видео

Регистрация Запомнить меня
Войти через:  Facebook Google Twitter Vk Yandex Mail.ru

Mac Demarco - Me And Jon Hanging On - таба, видео

Печатать
Просмотров: 84
-------------------------------------------------------------------------------
                             Me and Jon Hanging On - Mac DeMarco
-------------------------------------------------------------------------------
Tabbed by: coastinclouds
E-mail: cameron.pickett@ymail.com
This is my first tab, so I hope you enjoy! 
Tuning: Standard EADGBE

e|---------------------------------------------------------------------------|
B|---------------------------------------------------------------------------|
G|------10------------8------------5----------3------------------------------|
D|-/12------12---10------10----8------8---5----------------------------------|
A|---------------------------------------------------------------------------|
E|---------------------------------------------------------------------------|

e|---------------------------------------------------------------------------|
B|---------------------------------------------------------------------------|
G|------10-----------8-------------15------------12--------------------------|
D|-/12------12---10-----10----17-------17---15--------15---------------------|
A|---------------------------------------------------------------------------|
E|---------------------------------------------------------------------------|

e|-----------------------------------------------------------1---------------|
B|----------------------------------------------------------------16b---13---|
G|-1----------1----------1----------1--------1-------1---2-------------------|
D|------3----------3-----------3---------3-------1---------------------------| (x2)
A|---------------------------------------------------------------------------|
E|---------------------------------------------------------------------------|


e|---------------------------------------------------------------------------|
B|-6---------6---5---------5---3---------2---1--------1----------------------|
G|---7-----7-------5-----5-------3-----3------1-----1------------------------|
D|-----7/8-----------6/7-----------3/4----------1/3--------------------------|
A|---------------------------------------------------------------------------|
E|---------------------------------------------------------------------------|

e|---------6---6---6------------6---6---6------------------8b--6--6/---------|
B|-6/8------------------6/8----------------------6--6--6----------------6/8--|
G|-----------------------------------------5/7-------------------------------|
D|---------------------------------------------------------------------------|
A|---------------------------------------------------------------------------|
E|---------------------------------------------------------------------------|

e|-6---6---6----------6---6---6---8b--6--6--6---------------------6--6--6----|
B|-------------6/8-----------------------------8--6-------6------------------|
G|----------------------------------------------------7-------7--------------|
D|---------------------------------------------------------------------------|
A|---------------------------------------------------------------------------|
E|---------------------------------------------------------------------------|

e|-------6---6---6-----------------------------------------------------------|
B|-6/8-----------------------------------------------------------------------|
G|---------------------------------------------------------------------------|
D|---------------------------------------------------------------------------|
A|---------------------------------------------------------------------------|
E|---------------------------------------------------------------------------|


************************************

| /   slide up
| \   slide down
| h   hammer-on
| p   pull-off
| ~   vibrato
| +   harmonic
| x   Mute note
| b   Bend
| pb  Pre-bend
| br  Bend release
| pbr Pre-bend release
| brb Bend release bend

************************************
Добавлено: 26.09.2015
Другие материалы по этой песне:
  • Аккорды и текст

Страница создана 26.09.2015
http://primanota.ru/mac-demarco/me-and-jon-hanging-on-chords.htm
Привет, Гость.
Предлагаем пройти революционный курс по гитаре.
Подарок от PrimaNota.Ru, забирай!