PrimaNota.ru - самый крупный в мире бесплатный архив песенных текстов, аккордов, табулатур и нот


Mac Demarco - Horse Hot Wee Wee Water - таба, видео

Регистрация Запомнить меня
Войти через:  Facebook Google Twitter Vk Yandex Mail.ru

Mac Demarco - Horse Hot Wee Wee Water - таба, видео

Печатать
Просмотров: 217
Уроки эстрадного вокала в Санкт-Петербурге
This song is an amazingly, beautiful instrumental from Mac DeMarco's "Salad Days Demos" record.
It took me a while to tab so I hope you guys enjoy it. :D 
I couldn't quite figure out the rhythm guitar or the chords for the chorus so... 
This is by the way my first tab ever, so if it needs corrections just comment and I'll get it fixed. 

Mac DeMarco - Horse Hot Wee Wee Water

Verse 1: 
Lead Guitar
    C                                      Bb           
e|--8--------------------------------------6----------------------------------------|
B|--8--------------------------------------6----------------------------------------|
G|--9--------------------------------------7----------------------------------------|  x8  
D|--10-------------------------------------8----------------------------------------|
A|--10-------------------------------------8----------------------------------------|
E|--8--------------------------------------6----------------------------------------|
      

Chorus 1:
Lead Guitar
e|-----------------------------------------------------------------------------------|
B|--13-11-----------------------------------------------------13--------15-----------|
G|-------------------12----------------12------------------------12------------------|
D|---------12s13-----13--10s12------15--12s14------------14--------------------------|
A|-----------------------------------------------------------------------------------|
E|-----------------------------------------------------------------------------------|

e|-----------------------------------------------------------------------------------|
B|-------11--------------------------------------------------------------------------|
G|--------------------12-------------------12-10-----9----------9--------------------|
D|--10-----12s13----13---10s12-------------10-------10-----12------------------------|
A|-----------------------------------------------------------------------------------|
E|-----------------------------------------------------------------------------------|

e|-----------------------------------------------------------------------------------|
B|-----11-----------------------------------------------------13--------15-----------|
G|-------------------12----------------12------------------------12------------------|
D|---------12s13-----13--10s12------15--12s14------------14--------------------------|
A|-----------------------------------------------------------------------------------|
E|-----------------------------------------------------------------------------------|

e|-----------------------------------------------------------------------------------|
B|-------11--------------------------------------------------------------------------|
G|--------------------12-------------------12-10-----9----------9--------------------|
D|--10-----12s13----13---10s12-------------10-------10-----12------------------------|
A|-----------------------------------------------------------------------------------|
E|-----------------------------------------------------------------------------------|


Verse 2: 
Lead Guitar
    C                                      Bb           
e|--8--------------------------------------6----------------------------------------|
B|--8--------------------------------------6----------------------------------------|
G|--9--------------------------------------7----------------------------------------|  x4  
D|--10-------------------------------------8----------------------------------------|
A|--10-------------------------------------8----------------------------------------|
E|--8--------------------------------------6----------------------------------------|


Chorus 2:
Lead Guitar
e|-----------------------------------------------------------------------------------|
B|--13-11-----------------------------------------------------13--------15-----------|
G|-------------------12----------------12------------------------12------------------|
D|---------12s13-----13--10s12------15--12s14------------14--------------------------|
A|-----------------------------------------------------------------------------------|
E|-----------------------------------------------------------------------------------|

e|-----------------------------------------------------------------------------------|
B|-------11--------------------------------------------------------------------------|
G|--------------------12-------------------12-10-----9----------9--------------------|
D|--10-----12s13----13---10s12-------------10-------10-----12------------------------|
A|-----------------------------------------------------------------------------------|
E|-----------------------------------------------------------------------------------|

e|-----------------------------------------------------------------------------------|
B|-----11-----------------------------------------------------13--------15-----------|
G|-------------------12----------------12------------------------12------------------|
D|---------12s13-----13--10s12------15--12s14------------14--------------------------|
A|-----------------------------------------------------------------------------------|
E|-----------------------------------------------------------------------------------|

e|-----------------------------------------------------------------------------------|
B|-------11--------------------------------------------------------------------------|
G|--------------------12-------------------12-10-----9----------9--------------------|
D|--10-----12s13----13---10s12-------------10-------10-----12------------------------|
A|-----------------------------------------------------------------------------------|
E|-----------------------------------------------------------------------------------|


Verse 3: 
Lead Guitar
    C                                      Bb           
e|--8--------------------------------------6----------------------------------------|
B|--8--------------------------------------6----------------------------------------|
G|--9--------------------------------------7----------------------------------------|  x4
D|--10-------------------------------------8----------------------------------------|
A|--10-------------------------------------8----------------------------------------|
E|--8--------------------------------------6----------------------------------------|


Chorus 3/Outro:
Lead Guitar
e|-----------------------------------------------------------------------------------|
B|--13-11-----------------------------------------------------13--------15-----------|
G|-------------------12----------------12------------------------12------------------|
D|---------12s13-----13--10s12------15--12s14------------14--------------------------|
A|-----------------------------------------------------------------------------------|
E|-----------------------------------------------------------------------------------|

e|-----------------------------------------------------------------------------------|
B|-------11--------------------------------------------------------------------------|
G|--------------------12-------------------12-10-----9----------9--------------------|
D|--10-----12s13----13---10s12-------------10-------10-----12------------------------|
A|-----------------------------------------------------------------------------------|
E|-----------------------------------------------------------------------------------|

e|-----------------------------------------------------------------------------------|
B|-----11-----------------------------------------------------13--------15-----------|
G|-------------------12----------------12------------------------12------------------|
D|---------12s13-----13--10s12------15--12s14------------14--------------------------|
A|-----------------------------------------------------------------------------------|
E|-----------------------------------------------------------------------------------|

e|-----------------------------------------------------------------------------------|
B|-------11--------------------------------------------------------------------------|
G|--------------------12-------------------12-10-----9----------9--------------------|
D|--10-----12s13----13---10s12-------------10-------10-----12------------------------|
A|-----------------------------------------------------------------------------------|
E|-----------------------------------------------------------------------------------|
Добавлено: 23.07.2015
Другие материалы по этой песне:
  • Аккорды и текст

Страница создана 23.07.2015
http://primanota.ru/mac-demarco/horse-hot-wee-wee-water-chords.htm
Привет, Гость.
Предлагаем пройти революционный курс по гитаре.
Подарок от PrimaNota.Ru, забирай!