PrimaNota.ru - самый крупный в мире бесплатный архив песенных текстов, аккордов, табулатур и нот


M2m - Dont - текст песни, таба, видео

Регистрация Запомнить меня
Войти через:  Facebook Google Twitter Vk Yandex Mail.ru

M2m - Dont - текст песни, таба, видео

Печатать
Просмотров: 181
Авторы музыки: Marion Raven, Marit Larsen

Title: Don't
Artist: M2M
Album: The Big Room
Written by: Marit Larsen/Marion Raven
Tabbed By: Juan de Jesús Ayala Patiño 
Fecha: 27 de diciembre de 2002

si tienen comentarios o alguna cosilla que decirme envienme
un mail a Juandejesus18@hotmail.com

Chords:
E(2)            0  7  9  9  0  0
F#sus7/4        X  9 11 11  0  0        
Aadd9           0 12 14 14  0  0
C#m7            X  4  6  6  0  0 
Bsus4           X  2  4  4  0  0
E               0  2  2  1  0  0
Am9             0  0  2  2  0  0
E/D#            X  6  9  9  0  0
_____________________________________________________________________________
Here is the tabs:
"Marit E. Larsen"
Intro:

  Am9
e---------0----0----------0------
b---------0---------------0------
g------2-----2---2------2--------
d----2----------------2----------
a--0----------------0------------
E--------------------------------

Verse 1: When you...
(Only the first verse, the verse 2, the chorus and pre-chorus are struming)
  E(2)      F#sus7/4       Aadd9
e--------I---------------I-------------
b--------I----------0----I-------------
g------9-I------11----11-I-------14----
d----9---I---11----------I----14-------
a--7-----I-9-------------I-12----------
E--------I---------------I-------------

  E(2)        E/D#   C#m7       Bsus4     Am9
e------------I---I--------I------------I--------0----0--
b--------0---I---I--------I--------0---I--------0-------
g------9-----I---I-----6--I------4---4-I------2----2----
d----9-------I---I---6----I----4-------I----2-----------
a--7---------I-6-I-4------I--2---------I--0-------------
E------------I---I--------I------------I----------------

    C#m7       Bsus4     Am9
e--------I------------I--------I------0---
b--------I--------0---I--------I------0---
g-----6--I------4---4-I------2-I----2-----
d---6----I----4-------I----2---I----------
a-4------I--2---------I--0-----I----------
E--------I------------I--------I-0--------

    C#m7       Bsus4     Am9
e--------I------------I--------0----0--
b--------I--------0---I--------0-------
g-----6--I------4---4-I------2----2----
d---6----I----4-------I----2-----------
a-4------I--2---------I--0-------------
E--------I------------I----------------
______________________________________________________________________________
"Marion E. Raven"
Intro:
e------0------0---------0-----------
B----0------0---------0-------------
G--4------6---------4--------6------
D-----------------------------------
A-----------------------------------
E-----------------------------------

Verses: When you...
e------0--------0-----------0-------0---
B----0--------0-----------0-------0-----
G--9-----11-----------14-----13---------
D---------------------------------------
A---------------------------------------
E---------------------------------------

e------0--------0----------0-------0----
B----0--------0----------0-------0------
G--9-----11-----------8------9----------
D---------------------------------------
A---------------------------------------
E---------------------------------------

e------0--------0----------0-------0----
B----0--------0----------0-------0------
G--9-----11-----------14-----13---------
D---------------------------------------
A---------------------------------------
E---------------------------------------

e------0--------0---------0-------0---I-----0-----0-
B----0--------0---------0-------0-----I---0-----0---
G--9-----11-----------8------9--------I-2-----2-----
D-------------------------------------I-------------
A-------------------------------------I-------------
E-------------------------------------I-------------

Pre-chorus 1 y 2: No no, no no can't you see... 
e-------0------0---------0-----0------
B-----0------0---0-----0-----0--------
G---6------4---------2-----2----------
D-------------------------------------
A-------------------------------------
E-------------------------------------
 
e-------0------0---------0-----0------
B-----0------0---0-----0-----0--------
G---6------4---------2-----1----------
D-------------------------------------
A-------------------------------------
E-------------------------------------

e-------0------0---------0------0-----
B-----0------0---0-----0------0-------
G---6------4---------2------2---------
D-------------------------------------
A-------------------------------------
E-------------------------------------

Pre-chorus 2: No no, no no you make...
e-------0------0---------0-----0------
B-----0------0---0-----0-----0--------
G---6------4---------2-----2----------
D-------------------------------------
A-------------------------------------
E-------------------------------------
 
e-------0------0---------0-----0------
B-----0------0---0-----0-----0--------
G---6------4---------2-----1----------
D-------------------------------------
A-------------------------------------
E-------------------------------------
                 Stop!!!            
e-------0------0--------I-----0-----0-
B-----0------0---0------I---0-----0---
G---6------4---------2--I-2-----2-----
D-----------------------I-------------
A-----------------------I-------------
E-----------------------I-------------


Chorus: 
e-------0------0---------0------0-----
B-----0------0---0-----0------0-------
G---1------1---------2------2---------
D-------------------------------------
A-------------------------------------
E-------------------------------------
 Don't look at me with that smile...

e-------0------0---------0-----0------
B-----0------0---0-----0-----0--------
G---4------9---------4-----6----------
D-------------------------------------
A-------------------------------------
E-------------------------------------
 Don't act like everything's fine...

e-------0------0----------0------0-----
B-----0------0---0------0------0-------
G---1------1----------2------2---------
D--------------------------------------
A--------------------------------------
E--------------------------------------
 Stop putting dreams in my head...                                       

e-------0------0---------0-----0--------I-----0-----0-
B-----0------0---0-----0-----0----------I---0-----0---
G---4------9---------4-----6------------I-4-----6-----
D---------------------------------------I-------------
A---------------------------------------I-------------
E---------------------------------------I-------------
 When I should've thought of him instead


Solo: 
e-----------------------------------------------------------
B-------------------12--------------------------------------
G--9-9/(11)-11--14-----13--11/9---9-9/(11)-11--8-8/(9)--9---
D-----------------------------------------------------------
A-----------------------------------------------------------
E-----------------------------------------------------------

e-----------------------------------------------------------
B-------------------12--------------------------------------
G--9-9/(11)-11--14-----13--11/9---9-9/(11)-11--8-8/(9)--9---
D-----------------------------------------------------------
A-----------------------------------------------------------
E-----------------------------------------------------------

e--------------------------------
B-------------------12-----------
G--9-9/(11)-11--14-----13--11/9--
D--------------------------------
A--------------------------------
E--------------------------------

In the Asian version have a little change in the solo part:
(Only the first time)
e----------------------------------------------------------------
B----------------------------------------------------------------
G--9-9/(11)-11--14--14---13/(11)-11/(9)--9-9/(11)-11--8-8/(9)--9-
D----------------------------------------------------------------
A----------------------------------------------------------------
E----------------------------------------------------------------


Ending: (After The double chorus)
e------0------0---------0--------0------0--------
B----0------0---------0--------0------0----------
G--4------6---------4--------6------4------6-(6)-
D------------------------------------------------
A------------------------------------------------
E------------------------------------------------


Intro:

Verse 1:
 E(2)    F#sus7/4  Aadd9   E(2)  E/D#    
 When you walked    into my world 
 C#m7  Bsus4    Am9
 I was someone else's girl 
      C#m7 Bsus4    Am9        E 
 But every time you look in my eyes 
 C#m7        Bsus4  Am9
 All that I felt   somehow dies 

Pre-chorus:
C#m7 Bsus4    Am9
 No  no,  no  no 
C#m7         Bsus4          Am9      E
 Can't you see what you're doing to me 
C#m7 Bsus4   Am9
 No  no,  no  nooo!!! 

Chorus: 
 E             Am9  
 Don't look at me with that smile 
 Bsus4  E(2)    Bsus4        Am9
 Don't act like everything's fine 
 E            Am9
 Stop putting dreams in my head 
 Bsus4            E          Bsus4 Am9
 When I should've thought of him   instead 

Verse 2:
 Bsus4      F#sus7/4  Aadd9      E(2) E/D#
 When  you  say  the   things you do 
    C#m7     Bsus4   Am9
 It makes me want to be with you 
     C#m7  Bsus4     Am9        E 
 And every time that he kisses me 
 C#m7    Bsus4  Am9
 You are always what I see 

Pre-chorus 2:
C#m7 Bsus4    Am9
 No  no,  no  no 
C#m7  Bsus4      Am9       E
 You  make me forget about him 
C#m7 Bsus4   Am9
 No  no,  no  no 


Chorus:
 E             Am9  
 Don't look at me with that smile 
 Bsus4  E(2)    Bsus4        Am9
 Don't act like everything's fine 
 E            Am9
 Stop putting dreams in my head 
 Bsus4            E          Bsus4 Am9
 When I should've thought of him   instead 
 Bsus4            E          Bsus4 Am9
 When I should've thought of him   instead 

Solo Part:
E(2), F#sus7/4, Aadd9, E(2), E/D#    
C#m7, Bsus4, Am9
C#m7, Bsus4, Am9, E
C#m7, Bsus4, Am9 
C#m7, Bsus4, Am9, E

Pre-chorus:
C#m7 Bsus4    Am9
 No  no,  no  no 
C#m7         Bsus4          Am9      E
 Can't you see what you're doing to me 
C#m7 Bsus4   Am9
 No  no,  no  nooo!!!("Play as loud as possible in this part!"-Marit) 

Chorus:
 E             Am9  
 Don't look at me with that smile 
 Bsus4  E(2)    Bsus4        Am9
 Don't act like everything's fine 
 E            Am9
 Stop putting dreams in my head 
 Bsus4            E          Bsus4 Am9
 When I should've thought of him   instead 
 E             Am9  
 Don't look at me with that smile 
 Bsus4  E(2)    Bsus4        Am9
 Don't act like everything's fine 
 E            Am9
 Stop putting dreams in my head 
 Bsus4            E          Bsus4 Am9
 When I should've thought of him   instead 
 Bsus4            E          Bsus4 Am9
 When I should've thought of him   instead 

En esta canción me esmeré muchisimo, quise que fuera lo mas presiso posible,
aun escucho esta canción en mi cabeza, bueno, disfrutenla... papaya de celaya!!!
Добавлено: 22.07.2012
Другие материалы по этой песне:
  • Аккорды и текст

Страница создана 08.04.2012
http://primanota.ru/m2m/dont-chords.htm
Привет, Гость.
Предлагаем пройти революционный курс по гитаре.
Подарок от PrimaNota.Ru, забирай!