PrimaNota.ru - самый крупный в мире бесплатный архив песенных текстов, аккордов, табулатур и нот


M - Maiden - таба, видео

Регистрация Запомнить меня
Войти через:  Facebook Google Twitter Vk Yandex Mail.ru

M - Maiden - таба, видео

Печатать
Просмотров: 66
-------------------------------------------------------------------------------
                             Maiden (Audio) - MØ
-------------------------------------------------------------------------------



Tuning: Standard

e|------------------------------|
B|---11-11-11-11-11-11-11-11----|
G|------------------------------|
D|------------------------------|
A|------------------------------|
E|------------------------------|



e|--13--14--13--11---------------------------------------------------|
B|------------------14--13--11-----------11------11------------------|
G|-------------------------------13--13------10------13--10----------|
D|-----------------------------------------------------------13--11--|
A|-------------------------------------------------------------------|
E|-------------------------------------------------------------------|

e|----------------------------------|
B|----------------------------------|
G|-------------------------10-------|
D|-----------------11--13-----------|
A|--13-11--11--13--------------13---|
E|----------------------------------|
Enjoy!



Добавлено: 13.12.2015
Другие материалы по этой песне:
  • Аккорды и текст

Страница создана 13.12.2015
http://primanota.ru/m/maiden-chords.htm
Привет, Гость.
Предлагаем пройти революционный курс по гитаре.
Подарок от PrimaNota.Ru, забирай!