PrimaNota.ru - самый крупный в мире бесплатный архив песенных текстов, аккордов, табулатур и нот


M Ward - Clean Slate - аккорды и текст, видео

Регистрация Запомнить меня
Войти через:  Facebook Google Twitter Vk Yandex Mail.ru

M Ward - Clean Slate - аккорды и текст, видео

Печатать
Просмотров: 76
Clean Slate
M Ward
M Ward - Clean Slate

These chords are very simplistic so please do submit a better version if you have an idea of how they go.

Tuning D# 
Riff: (all played alongside plucking along the E A D strings chords)
  G                                              Em   C
E|---------------------------------------0----------------|
B|---------------------3-----3-0h3-3-0h3---3p0------------|
G|---2-0h2-2-0h2-2-0h2---2p0-------------------2----------|
D|-0----------------------------------------------2----2--|
A|-2----------------------------------------------2----3--|
E|-3----------------------------------------------0----0--|

   G
E|---3-2p0---------------------------------------|
B|---------3-----1-0h1-1-0h1--0------------------|
G|-----------2p0----------------2-0--------------|
D|-0--------------------------------2-0------0---|
A|-2------------------------------------0h2--2---|
E|-3-----------------------------------------3---|

G          
When I was a younger man I thought 
            C                    D6
the pain of defeat would last forever 
    G
But now I don't know what it 
      C               D6         Em      C
would take to make my heart back down
        Em                         C
Cause I only have to wait a little while 
       D6    G                   (Riff)
Before I get my clean slate    


     G
Then somewhere in another place,
                 C          D6 
Who knows? Could be another lifetime
G  
Everything we gave away
C                          D6        Em   C  
Returns like a seed from a fugitive tree
        Em                         C
And you only have to wait a little while 
       D6    G                   (Riff)
Before you find the truth    

        Em                         C
Yeah I only had to wait a little while (x3)
       D6    G              
Before I got my clean slate    

Enjoy folks!

Добавлено: 21.03.2016
Другие материалы по этой песне:
  • Аккорды и текст

Страница создана 21.03.2016
http://primanota.ru/m-ward/clean-slate-chords.htm
Привет, Гость.
Предлагаем пройти революционный курс по гитаре.
Подарок от PrimaNota.Ru, забирай!