PrimaNota.ru - самый крупный в мире бесплатный архив песенных текстов, аккордов, табулатур и нот


M People - Search For The Hero - текст песни, бас-таба, видео

Регистрация Запомнить меня
Войти через:  Facebook Google Twitter Vk Yandex Mail.ru

M People - Search For The Hero - текст песни, бас-таба, видео

Печатать
Просмотров: 127
Авторы музыки: Paul Heard, Mike Pickering

-------------------------------------------------------------------------------
			     Search for the Hero – M People
-------------------------------------------------------------------------------

Tabbed By : Phil Starr
e-mail: 

Tuning:EADG

Very simple riff repeated throughout the song with pauses and a couple of 
shifts up the neck which I have written as riff 2. He gets real movement
 with subtle changes of touch and timing. I wish I could play half as well.

Riff 1

G|---------------------------------------------------------------------------|
D|---------------------------------------------------------------------------|
A|--1-11---1-------1-11----1-1-31--------------------------------------------|
E|-------3-----1-3-------3-------3-------------------------------------------|

Riff 2

G|---------------------------------------------------------------------------|
D|---------------------------------------------------------------------------|
A|--6-66---6-------6-66----6-6-86--------------------------------------------|
E|-------8-----6-8-------8-------8-------------------------------------------|
Добавлено: 09.04.2012
Вам также может быть интересно:
Другие материалы по этой песне:
  • Аккорды и текст

Страница создана 09.04.2012
http://primanota.ru/m-people/search-for-the-hero-chords.htm
Привет, Гость.
Предлагаем пройти революционный курс по гитаре.
Подарок от PrimaNota.Ru, забирай!