PrimaNota.ru - самый крупный в мире бесплатный архив песенных текстов, аккордов, табулатур и нот


Lynyrd Skynyrd - Travellin Man - текст песни, таба, бас-таба, видео

Регистрация Запомнить меня
Войти через:  Facebook Google Twitter Vk Yandex Mail.ru

Lynyrd Skynyrd - Travellin Man - текст песни, таба, бас-таба, видео

Печатать
Просмотров: 155
Allen Collins (guitar)



     W                   W                   W                 
E||-------------------|-------------------|-------------------|
B||-------------------|-------------------|-------------------|
G||-------------------|-------------------|-------------------|
D||-------------------|-------------------|-------------------|
A||-------------------|-------------------|-------------------|
E||-------------------|-------------------|-------------------|


  W                   W                   W                   W                 
-------------------|-------------------|-------------------|-------------------|
-------------------|-------------------|-------------------|-------------------|
-------------------|-------------------|-------------------|-------------------|
-------------------|-------------------|-------------------|-------------------|
-------------------|-------------------|-------------------|-------------------|
-------------------|-------------------|-------------------|-------------------|


  W                   E  E  E  S  S S S S S  Q       E  E  E  S  S E.  E.   E   
-------------------|------------------------------|----------------------------|
-------------------|------------------------------|----------------------------|
-------------------|-----7-----5s-7-x-5-----10----|-----7-----5s-7-5---7---10--|
-------------------|--0--7-----5s-7-x-5-x-x-10----|--0--7-----5s-7-3---5---10--|
-------------------|------------------------------|----------------------------|
-------------------|------------------------------|----------------------------|


  E  E  E  S  S S S S S  Q       E  E  E  S  S Q    Q     
------------------------------|--------------------------|
------------------------------|--------------------------|
-----7-----5s-7-x-5-----10----|-----7-----5s-7-5----7----|
--0--7-----5s-7-x-5-x-x-10----|--0--7-----5s-7-3----5----|
------------------------------|--------------------------|
------------------------------|--------------------------|


  E  E  E  S  S S S S S  Q       E  E  E  S  S E.  E.   E   
------------------------------|----------------------------|
------------------------------|----------------------------|
-----7-----5s-7-x-5-----10----|-----7-----5s-7-5---7---10--|
--0--7-----5s-7-x-5-x-x-10----|--0--7-----5s-7-3---5---10--|
------------------------------|----------------------------|
------------------------------|----------------------------|


  E  E  E  S  S S S S S  Q       E  E  E  S  S Q    Q     
------------------------------|--------------------------|
------------------------------|--------------------------|
-----7-----5s-7-x-5-----10----|-----7-----5s-7-5----7----|
--0--7-----5s-7-x-5-x-x-10----|--0--7-----5s-7-3----5----|
------------------------------|--------------------------|
------------------------------|--------------------------|


  E  E  E  S  S S S S S  Q       E  E  E  S  S E.  E.   E   
------------------------------|----------------------------|
------------------------------|----------------------------|
-----7-----5s-7-x-5-----10----|-----7-----5s-7-5---7---10--|
--0--7-----5s-7-x-5-x-x-10----|--0--7-----5s-7-3---5---10--|
------------------------------|----------------------------|
------------------------------|----------------------------|


  E  E  E  S  S S S S S  Q       E  E  E  S  S Q    Q     
------------------------------|--------------------------|
------------------------------|--------------------------|
-----7-----5s-7-x-5-----10----|-----7-----5s-7-5----7----|
--0--7-----5s-7-x-5-x-x-10----|--0--7-----5s-7-3----5----|
------------------------------|--------------------------|
------------------------------|--------------------------|


   Q    Q    Q    Q       E  S S S E  S  E  S S S E.      Q    Q    Q    Q     
-----------------------|------------------------------|-----------------------|
-----------------------|------------------------------|-----------------------|
--10----9----7----5----|-----7---5-7----10--7---5-7---|--10----9----7----5----|
---x----x----x----x----|--0----0------0-------0-------|---x----x----x----x----|
---8----7----5----3----|------------------------------|---8----7----5----3----|
-----------------------|------------------------------|-----------------------|


  E  S S S E  S  E  S S S E.      Q    Q    Q    Q     
------------------------------|-----------------------|
------------------------------|-----------------------|
-----7---5-7----10--7---5-7---|--10----9----7----5----|
--0----0------0-------0-------|---x----x----x----x----|
------------------------------|---8----7----5----3----|
------------------------------|-----------------------|


  E  S S S E  S  E  S S S E.      Q    Q    Q    Q       W                 
------------------------------|-----------------------|-------------------|
------------------------------|-----------------------|-------------------|
-----7---5-7----10--7---5-7---|--10----9----7----5----|-------------------|
--0----0------0-------0-------|---x----x----x----x----|-------------------|
------------------------------|---8----7----5----3----|-------------------|
------------------------------|-----------------------|-------------------|


  W                   E  E  E  S  S S S S S  Q       E  E  E  S  S Q    Q     
-------------------|------------------------------|--------------------------|
-------------------|------------------------------|--------------------------|
-------------------|-----7-----5s-7-x-5-----10----|-----7-----5s-7-5----7----|
-------------------|--0--7-----5s-7-x-5-x-x-10----|--0--7-----5s-7-3----5----|
-------------------|------------------------------|--------------------------|
-------------------|------------------------------|--------------------------|


  E  E  E  S  S S S S S  Q       E  E  E  S  S E.  E.   E   
------------------------------|----------------------------|
------------------------------|----------------------------|
-----7-----5s-7-x-5-----10----|-----7-----5s-7-5---7---10--|
--0--7-----5s-7-x-5-x-x-10----|--0--7-----5s-7-3---5---10--|
------------------------------|----------------------------|
------------------------------|----------------------------|


  E  E  E  S  S S S S S  Q       E  E  E  S  S Q    Q     
------------------------------|--------------------------|
------------------------------|--------------------------|
-----7-----5s-7-x-5-----10----|-----7-----5s-7-5----7----|
--0--7-----5s-7-x-5-x-x-10----|--0--7-----5s-7-3----5----|
------------------------------|--------------------------|
------------------------------|--------------------------|


  E  E  E  S  S S S S S  Q       E  E  E  S  S S E  E.   E   
------------------------------|-----------------------------|
------------------------------|-----------------------------|
-----7-----5s-7-x-5-----10----|-----7-----5s-7-x-5--7---10--|
--0--7-----5s-7-x-5-x-x-10----|--0--7-----5s-7-x-3--5---10--|
------------------------------|-----------------------------|
------------------------------|-----------------------------|


  E  E  E  S  S S S S S  Q       E  E  E  S  S Q    Q     
------------------------------|--------------------------|
------------------------------|--------------------------|
-----7-----5s-7-x-5-----10----|-----7-----5s-7-5----7----|
--0--7-----5s-7-x-5-x-x-10----|--0--7-----5s-7-3----5----|
------------------------------|--------------------------|
------------------------------|--------------------------|


   Q    Q    Q    Q       E  S S S E  S  E  S S S E.      Q    Q    Q    Q     
-----------------------|------------------------------|-----------------------|
-----------------------|------------------------------|-----------------------|
--10----9----7----5----|-----7---5-7----10--7---5-7---|--10----9----7----5----|
---x----x----x----x----|--0----0------0-------0-------|---x----x----x----x----|
---8----7----5----3----|------------------------------|---8----7----5----3----|
-----------------------|------------------------------|-----------------------|


  E  S S S E  S  E  S S S E.      Q    Q    Q    Q     
------------------------------|-----------------------|
------------------------------|-----------------------|
-----7---5-7----10--7---5-7---|--10----9----7----5----|
--0----0------0-------0-------|---x----x----x----x----|
------------------------------|---8----7----5----3----|
------------------------------|-----------------------|


  E  S S S E  S  E  S S S E.      Q    Q    Q    Q       W                 
------------------------------|-----------------------|-------------------|
------------------------------|-----------------------|-------------------|
-----7---5-7----10--7---5-7---|--10----9----7----5----|-------------------|
--0----0------0-------0-------|---x----x----x----x----|-------------------|
------------------------------|---8----7----5----3----|-------------------|
------------------------------|-----------------------|-------------------|


  ^       ^      ^       ^            ^  ^        ^       ^  ^  ^        
  Q    E  Q.     Q       Q    E  Q    E  E  E     Q    E  E  E  Q    E   
----------------------|------------------------|------------------------|
--6-------6------6----|------------------------|------------------------|
--7-------7------7----|--3------------3--3-----|--5-------5--5--5-------|
--7----x--7------7----|--3----x-------3--3--x--|--5----x--5--5--5----x--|
--5----x--5------5----|--1----x--1----1--1--x--|--3----x--3--3--3----x--|
----------------------|------------------------|------------------------|


  ^  ^  ^  ^    ^    ^        ^       ^      ^        ^       ^      ^      
  E  E  E  E  S S E  E  E     Q    E  Q.     E  E     Q    E  Q.     E  E   
---------------------------|-----------------------|-----------------------|
---------------------------|--6-------6------6-----|-----------------------|
--------------6------------|--7-------7------7-----|--3-------3------3-----|
--7-----7-----7-7----7-----|--7----x--7------7--x--|--3----x--3------3--x--|
--7--7--7--7--7-7-7--7--7--|--5----x--5------5--x--|--1----x--1------1--x--|
--5--5--5--5--5-5-5--5--5--|-----------------------|-----------------------|


  ^       ^  ^  ^          ^  ^  ^  ^    ^    ^                          
  Q    E  E  E  Q    E     E  E  E  E  S S E  E  E     W                 
------------------------|---------------------------|-------------------|
------------------------|---------------------------|-------------------|
--5-------5--5--5-------|--------------6------------|-------------------|
--5----x--5--5--5----x--|--7-----7-----7-7----7-----|-------------------|
--3----x--3--3--3----x--|--7--7--7--7--7-7-7--7--7--|-------------------|
------------------------|--5--5--5--5--5-5-5--5--5--|-------------------|


  ^       ^               ^       ^               ^       ^             
  Q    E  Q.     E  E     Q    E  Q.     E  E     Q    E  Q.     E  E   
-----------------------|-----------------------|-----------------------|
--6-------6------6--6--|--3-------3------------|--5-------5------5--5--|
--7-------7------7--7--|--3-------3------3--3--|--5-------5------5--5--|
--7----x--7------7--7--|--3----x--3------3--3--|--5----x--5------5--5--|
--5----x--5------5--5--|--1----x--1------1--1--|--3----x--3------3--3--|
-----------------------|-----------------------|-----------------------|


  ^       ^      ^        ^       ^               ^       ^             
  Q    E  Q.     E  E     Q    E  Q.     E  E     Q    E  Q.     E  E   
-----------------------|-----------------------|-----------------------|
-----------------------|--6-------6------6--6--|--3-------3------------|
--6-------6------6--6--|--7-------7------7--7--|--3-------3------3--3--|
--7-------7------7--7--|--7----x--7------7--7--|--3----x--3------3--3--|
--7----x--7------7--7--|--5----x--5------5--5--|--1----x--1------1--1--|
--5----x--5------5--5--|-----------------------|-----------------------|


  ^       ^                                                                
  Q    E  Q.     E  E     E  E  E  E  E  E  E  E      Q    Q    Q    Q     
-----------------------|--------------------------|-----------------------|
--5-------5------5--5--|--------------------5--5--|-----------------------|
--5-------5------5--5--|--------------6--6--6--6--|--10----9----7----5----|
--5----x--5------5--5--|--------7--7--7--7--7--7--|---x----x----x----x----|
--3----x--3------3--3--|--7--7--7--7--7--7--7--7--|---8----7----5----3----|
-----------------------|--5--5--5--5--5--5--5--5--|-----------------------|


  W                   W                   E  E  E  S  S S S S S  Q     
-------------------|-------------------|------------------------------|
-------------------|-------------------|------------------------------|
-------------------|-------------------|-----7-----5s-7-x-5-----10----|
-------------------|-------------------|--0--7-----5s-7-x-5-x-x-10----|
-------------------|-------------------|------------------------------|
-------------------|-------------------|------------------------------|


  E  E  E  S  S E.  E.   E     E  E  E  S  S S S S S  Q     
----------------------------|------------------------------|
----------------------------|------------------------------|
-----7-----5s-7-5---7---10--|-----7-----5s-7-x-5-----10----|
--0--7-----5s-7-3---5---10--|--0--7-----5s-7-x-5-x-x-10----|
----------------------------|------------------------------|
----------------------------|------------------------------|


  E  E  E  S  S Q    Q       E  E  E  S  S S S S S  Q     
--------------------------|------------------------------|
--------------------------|------------------------------|
-----7-----5s-7-5----7----|-----7-----5s-7-x-5-----10----|
--0--7-----5s-7-3----5----|--0--7-----5s-7-x-5-x-x-10----|
--------------------------|------------------------------|
--------------------------|------------------------------|


  E  E  E  S  S E.  E.   E     E  E  E  S  S S S S S  Q     
----------------------------|------------------------------|
----------------------------|------------------------------|
-----7-----5s-7-5---7---10--|-----7-----5s-7-x-5-----10----|
--0--7-----5s-7-3---5---10--|--0--7-----5s-7-x-5-x-x-10----|
----------------------------|------------------------------|
----------------------------|------------------------------|


  E  E  E  S  S Q    Q       E  E  E  S  S S S S S  Q     
--------------------------|------------------------------|
--------------------------|------------------------------|
-----7-----5s-7-5----7----|-----7-----5s-7-x-5-----10----|
--0--7-----5s-7-3----5----|--0--7-----5s-7-x-5-x-x-10----|
--------------------------|------------------------------|
--------------------------|------------------------------|


  E  E  E  S  S E.  E.   E     E  E  E  S  S S S S S  Q     
----------------------------|------------------------------|
----------------------------|------------------------------|
-----7-----5s-7-5---7---10--|-----7-----5s-7-x-5-----10----|
--0--7-----5s-7-3---5---10--|--0--7-----5s-7-x-5-x-x-10----|
----------------------------|------------------------------|
----------------------------|------------------------------|


  E  E  E  S  S Q    Q        Q    Q    Q    Q     
--------------------------|-----------------------|
--------------------------|-----------------------|
-----7-----5s-7-5----7----|--10----9----7----5----|
--0--7-----5s-7-3----5----|---x----x----x----x----|
--------------------------|---8----7----5----3----|
--------------------------|-----------------------|


  E  S S S E  S  E  S S S E.      Q    Q    Q    Q     
------------------------------|-----------------------|
------------------------------|-----------------------|
-----7---5-7----10--7---5-7---|--10----9----7----5----|
--0----0------0-------0-------|---x----x----x----x----|
------------------------------|---8----7----5----3----|
------------------------------|-----------------------|


  E  S S S E  S  E  S S S E.      Q    Q    Q    Q     
------------------------------|-----------------------|
------------------------------|-----------------------|
-----7---5-7----10--7---5-7---|--10----9----7----5----|
--0----0------0-------0-------|---x----x----x----x----|
------------------------------|---8----7----5----3----|
------------------------------|-----------------------|


  E  S S S E  S  E  S S S E.      Q    Q    Q    Q       W                 
------------------------------|-----------------------|-------------------|
------------------------------|-----------------------|-------------------|
-----7---5-7----10--7---5-7---|--10----9----7----5----|-------------------|
--0----0------0-------0-------|---x----x----x----x----|-------------------|
------------------------------|---8----7----5----3----|-------------------|
------------------------------|-----------------------|-------------------|


  W                   E  E  E  S  S S S S S  Q       E  E  E  S  S E.  E.   E   
-------------------|------------------------------|----------------------------|
-------------------|------------------------------|----------------------------|
-------------------|-----7-----5s-7-x-5-----10----|-----7-----5s-7-5---7---10--|
-------------------|--0--7-----5s-7-x-5-x-x-10----|--0--7-----5s-7-3---5---10--|
-------------------|------------------------------|----------------------------|
-------------------|------------------------------|----------------------------|


  E  E  E  S  S S S S S  Q       E  E  E  S  S Q    Q     
------------------------------|--------------------------|
------------------------------|--------------------------|
-----7-----5s-7-x-5-----10----|-----7-----5s-7-5----7----|
--0--7-----5s-7-x-5-x-x-10----|--0--7-----5s-7-3----5----|
------------------------------|--------------------------|
------------------------------|--------------------------|


   Q    Q    Q    Q       W                   W                  
-----------------------|--5----------------|--L----------------||
-----------------------|--6----------------|--L----------------||
--10----9----7----5----|--7----------------|--L----------------||
---x----x----x----x----|--7----------------|--L----------------||
---8----7----5----3----|--5----------------|--L----------------||
-----------------------|-------------------|-------------------||










Steve Gaines (guitar)



     W                   W                   W                 
E||-------------------|-------------------|-------------------|
B||-------------------|-------------------|-------------------|
G||-------------------|-------------------|-------------------|
D||-------------------|-------------------|-------------------|
A||-------------------|-------------------|-------------------|
E||-------------------|-------------------|-------------------|


  W                   W                   W                   W                 
-------------------|-------------------|-------------------|-------------------|
-------------------|-------------------|-------------------|-------------------|
-------------------|-------------------|-------------------|-------------------|
-------------------|-------------------|-------------------|-------------------|
-------------------|-------------------|-------------------|-------------------|
-------------------|-------------------|-------------------|-------------------|


  W                   E  E  S  E.  S S S S Q       E  E  S  E.   Q      Q      
-------------------|----------------------------|-----------------------------|
-------------------|-----------------------6----|-----------------------------|
-------------------|-----7--5h-7-------5--------|-----7--5h-7-----------------|
-------------------|--0-----0------5-7---7------|--0-----0-------3------5-----|
-------------------|----------------------------|---------------(3)----(5)----|
-------------------|----------------------------|-----------------------------|


  E  E  S  E.  S S S S Q       E  E  S  E.   Q      Q      
----------------------------|-----------------------------|
-----------------------6----|-----------------------------|
-----7--5h-7-------5--------|-----7--5h-7-----------------|
--0-----0------5-7---7------|--0-----0-------3------5-----|
----------------------------|---------------(3)----(5)----|
----------------------------|-----------------------------|


  E  E  S  E.  S S S S Q       E  E  S  E.   Q      Q      
----------------------------|-----------------------------|
-----------------------6----|-----------------------------|
-----7--5h-7-------5--------|-----7--5h-7-----------------|
--0-----0------5-7---7------|--0-----0-------3------5-----|
----------------------------|---------------(3)----(5)----|
----------------------------|-----------------------------|


  E  E  S  E.  S S S S Q       E  E  S  E.   Q      Q      
----------------------------|-----------------------------|
-----------------------6----|-----------------------------|
-----7--5h-7-------5--------|-----7--5h-7-----------------|
--0-----0------5-7---7------|--0-----0-------3------5-----|
----------------------------|---------------(3)----(5)----|
----------------------------|-----------------------------|


  E  E  S  E.  S S S S Q       E  E  S  E.   Q      Q      
----------------------------|-----------------------------|
-----------------------6----|-----------------------------|
-----7--5h-7-------5--------|-----7--5h-7-----------------|
--0-----0------5-7---7------|--0-----0-------3------5-----|
----------------------------|---------------(3)----(5)----|
----------------------------|-----------------------------|


  E  E  S  E.  S S S S Q       E  E  S  E.   Q      Q      
----------------------------|-----------------------------|
-----------------------6----|-----------------------------|
-----7--5h-7-------5--------|-----7--5h-7-----------------|
--0-----0------5-7---7------|--0-----0-------3------5-----|
----------------------------|---------------(3)----(5)----|
----------------------------|-----------------------------|


   Q    Q    Q    Q       E  S S S E  S E  S S S E.      Q    Q    Q    Q     
-----------------------|-----------------------------|-----------------------|
--10----8----6----5----|-----------------------------|--10----8----6----5----|
--10----9----7----5----|----------------5------------|--10----9----7----5----|
-----------------------|--0--7---5-7-------7---5-7---|-----------------------|
-----------------------|-----------------------------|-----------------------|
-----------------------|-----------------------------|-----------------------|


  E  S S S E  S E  S S S E.      Q    Q    Q    Q     
-----------------------------|-----------------------|
-----------------------------|--10----8----6----5----|
----------------5------------|--10----9----7----5----|
--0--7---5-7-------7---5-7---|-----------------------|
-----------------------------|-----------------------|
-----------------------------|-----------------------|


  E  S S S E  S E  S S S E.      Q    Q    Q    Q       W                 
-----------------------------|-----------------------|-------------------|
-----------------------------|--10----8----6----5----|-------------------|
----------------5------------|--10----9----7----5----|-------------------|
--0--7---5-7-------7---5-7---|-----------------------|-------------------|
-----------------------------|-----------------------|-------------------|
-----------------------------|-----------------------|-------------------|


  W                   E  E  S  E.  S S S S Q       E  E  S  E.   Q      Q      
-------------------|----------------------------|-----------------------------|
-------------------|-----------------------6----|-----------------------------|
-------------------|-----7--5h-7-------5--------|-----7--5h-7-----------------|
-------------------|--0-----0------5-7---7------|--0-----0-------3------5-----|
-------------------|----------------------------|---------------(3)----(5)----|
-------------------|----------------------------|-----------------------------|


  E  E  S  E.  S S S S Q       E  E  S  E.   Q      Q      
----------------------------|-----------------------------|
-----------------------6----|-----------------------------|
-----7--5h-7-------5--------|-----7--5h-7-----------------|
--0-----0------5-7---7------|--0-----0-------3------5-----|
----------------------------|---------------(3)----(5)----|
----------------------------|-----------------------------|


  E  E  S  E.  S S S S Q       E  E  S  E.   Q      Q      
----------------------------|-----------------------------|
-----------------------6----|-----------------------------|
-----7--5h-7-------5--------|-----7--5h-7-----------------|
--0-----0------5-7---7------|--0-----0-------3------5-----|
----------------------------|---------------(3)----(5)----|
----------------------------|-----------------------------|


  E  E  S  E.  S S S S Q       E  E  S  E.   Q      Q      
----------------------------|-----------------------------|
-----------------------6----|-----------------------------|
-----7--5h-7-------5--------|-----7--5h-7-----------------|
--0-----0------5-7---7------|--0-----0-------3------5-----|
----------------------------|---------------(3)----(5)----|
----------------------------|-----------------------------|


  E  E  S  E.  S S S S Q       E  E  S  E.   Q      Q      
----------------------------|-----------------------------|
-----------------------6----|-----------------------------|
-----7--5h-7-------5--------|-----7--5h-7-----------------|
--0-----0------5-7---7------|--0-----0-------3------5-----|
----------------------------|---------------(3)----(5)----|
----------------------------|-----------------------------|


   Q    Q    Q    Q       E  S S S E  S E  S S S E.      Q    Q    Q    Q     
-----------------------|-----------------------------|-----------------------|
--10----8----6----5----|-----------------------------|--10----8----6----5----|
--10----9----7----5----|----------------5------------|--10----9----7----5----|
-----------------------|--0--7---5-7-------7---5-7---|-----------------------|
-----------------------|-----------------------------|-----------------------|
-----------------------|-----------------------------|-----------------------|


  E  S S S E  S E  S S S E.      Q    Q    Q    Q     
-----------------------------|-----------------------|
-----------------------------|--10----8----6----5----|
----------------5------------|--10----9----7----5----|
--0--7---5-7-------7---5-7---|-----------------------|
-----------------------------|-----------------------|
-----------------------------|-----------------------|


  E  S S S E  S E  S S S E.      Q    Q    Q    Q       W                 
-----------------------------|-----------------------|-------------------|
-----------------------------|--10----8----6----5----|-------------------|
----------------5------------|--10----9----7----5----|-------------------|
--0--7---5-7-------7---5-7---|-----------------------|-------------------|
-----------------------------|-----------------------|-------------------|
-----------------------------|-----------------------|-------------------|


  ^                   ^                   ^                   ^                 
  W                   W                   W                   W                 
-------------------|-------------------|-------------------|-------------------|
--6----------------|--3----------------|--5----------------|--5----------------|
--7----------------|--3----------------|--5----------------|--6----------------|
--7----------------|--3----------------|--5----------------|--7----------------|
--5----------------|--1----------------|--3----------------|--7----------------|
-------------------|-------------------|-------------------|--5----------------|


  ^                   ^                   ^                   ^                 
  W                   W                   W                   W                 
-------------------|-------------------|-------------------|-------------------|
--6----------------|--3----------------|--5----------------|--5----------------|
--7----------------|--3----------------|--5----------------|--6----------------|
--7----------------|--3----------------|--5----------------|--7----------------|
--5----------------|--1----------------|--3----------------|--7----------------|
-------------------|-------------------|-------------------|--5----------------|


                      ^                      ^                    
  W                   Q    E  H        E     Q    E  H        E   
-------------------|----------------------|----------------------|
-------------------|--6-------6-----------|--3-------3-----------|
-------------------|--7----x--7-----------|--3-------3-----------|
-------------------|--7----x--7--------x--|--3----x--3--------x--|
-------------------|--5----x--5--------x--|--1----x--1--------x--|
-------------------|----------------------|----------------------|


  ^                      ^                        ^                    
  Q    E  H        E     Q.     E  E  E  E  E     Q    E  H        E   
----------------------|------------------------|----------------------|
--5-------5-----------|--5---------------------|--6-------6-----------|
--5-------5-----------|--6------6--6--6--6--6--|--7----x--7-----------|
--5-------5--------x--|--7------7--7--7--7--7--|--7----x--7--------x--|
--3-------3--------x--|--7------7--7--7--7--7--|--5----x--5--------x--|
----------------------|--5------5--5--5--5--5--|----------------------|


  ^                      ^                      ^                      
  Q    E  H        E     Q    E  H        E     Q.     E  E  E  E  E   
----------------------|----------------------|------------------------|
--3-------3-----------|--5-------5-----------|--5---------------------|
--3-------3-----------|--5-------5-----------|--6------6--6--6--6--6--|
--3----x--3--------x--|--5-------5--------x--|--7------7--7--7--7--7--|
--1----x--1--------x--|--3-------3--------x--|--7------7--7--7--7--7--|
----------------------|----------------------|--5------5--5--5--5--5--|


   Q    Q    Q    Q       W                   W                 
-----------------------|-------------------|-------------------|
--10----8----6----5----|-------------------|-------------------|
--10----9----7----5----|-------------------|-------------------|
-----------------------|-------------------|-------------------|
-----------------------|-------------------|-------------------|
-----------------------|-------------------|-------------------|


  E  E  S  E.  S S S S Q       E  E  S  E.   Q      Q      
----------------------------|-----------------------------|
-----------------------6----|-----------------------------|
-----7--5h-7-------5--------|-----7--5h-7-----------------|
--0-----0------5-7---7------|--0-----0-------3------5-----|
----------------------------|---------------(3)----(5)----|
----------------------------|-----------------------------|


  E  E  S  E.  S S S S Q       E  E  S  E.   Q      Q      
----------------------------|-----------------------------|
-----------------------6----|-----------------------------|
-----7--5h-7-------5--------|-----7--5h-7-----------------|
--0-----0------5-7---7------|--0-----0-------3------5-----|
----------------------------|---------------(3)----(5)----|
----------------------------|-----------------------------|


  E  E  S  E.  S S S S Q       E  E  S  E.   Q      Q      
----------------------------|-----------------------------|
-----------------------6----|-----------------------------|
-----7--5h-7-------5--------|-----7--5h-7-----------------|
--0-----0------5-7---7------|--0-----0-------3------5-----|
----------------------------|---------------(3)----(5)----|
----------------------------|-----------------------------|


  E  E  S  E.  S S S S Q       E  E  S  E.   Q      Q      
----------------------------|-----------------------------|
-----------------------6----|-----------------------------|
-----7--5h-7-------5--------|-----7--5h-7-----------------|
--0-----0------5-7---7------|--0-----0-------3------5-----|
----------------------------|---------------(3)----(5)----|
----------------------------|-----------------------------|


  E  E  S  E.  S S S S Q       E  E  S  E.   Q      Q      
----------------------------|-----------------------------|
-----------------------6----|-----------------------------|
-----7--5h-7-------5--------|-----7--5h-7-----------------|
--0-----0------5-7---7------|--0-----0-------3------5-----|
----------------------------|---------------(3)----(5)----|
----------------------------|-----------------------------|


  E  E  S  E.  S S S S Q       E  E  S  E.   Q      Q      
----------------------------|-----------------------------|
-----------------------6----|-----------------------------|
-----7--5h-7-------5--------|-----7--5h-7-----------------|
--0-----0------5-7---7------|--0-----0-------3------5-----|
----------------------------|---------------(3)----(5)----|
----------------------------|-----------------------------|


   Q    Q    Q    Q       E  S S S E  S E  S S S E.      Q    Q    Q    Q     
-----------------------|-----------------------------|-----------------------|
--10----8----6----5----|-----------------------------|--10----8----6----5----|
--10----9----7----5----|----------------5------------|--10----9----7----5----|
-----------------------|--0--7---5-7-------7---5-7---|-----------------------|
-----------------------|-----------------------------|-----------------------|
-----------------------|-----------------------------|-----------------------|


  E  S S S E  S E  S S S E.      Q    Q    Q    Q     
-----------------------------|-----------------------|
-----------------------------|--10----8----6----5----|
----------------5------------|--10----9----7----5----|
--0--7---5-7-------7---5-7---|-----------------------|
-----------------------------|-----------------------|
-----------------------------|-----------------------|


  E  S S S E  S E  S S S E.      Q    Q    Q    Q       W                 
-----------------------------|-----------------------|-------------------|
-----------------------------|--10----8----6----5----|-------------------|
----------------5------------|--10----9----7----5----|-------------------|
--0--7---5-7-------7---5-7---|-----------------------|-------------------|
-----------------------------|-----------------------|-------------------|
-----------------------------|-----------------------|-------------------|


  W                   E  E  S  E.  S S S S Q       E  E  S  E.   Q      Q      
-------------------|----------------------------|-----------------------------|
-------------------|-----------------------6----|-----------------------------|
-------------------|-----7--5h-7-------5--------|-----7--5h-7-----------------|
-------------------|--0-----0------5-7---7------|--0-----0-------3------5-----|
-------------------|----------------------------|---------------(3)----(5)----|
-------------------|----------------------------|-----------------------------|


  E  E  S  E.  S S S S Q       E  E  S  E.   Q      Q      
----------------------------|-----------------------------|
-----------------------6----|-----------------------------|
-----7--5h-7-------5--------|-----7--5h-7-----------------|
--0-----0------5-7---7------|--0-----0-------3------5-----|
----------------------------|---------------(3)----(5)----|
----------------------------|-----------------------------|


   Q    Q    Q    Q       W                   W                  
-----------------------|--5----------------|--L----------------||
--10----8----6----5----|--6----------------|--L----------------||
--10----9----7----5----|--7----------------|--L----------------||
-----------------------|--7----------------|--L----------------||
-----------------------|--5----------------|--L----------------||
-----------------------|-------------------|-------------------||











Gary Rossington (slide guitar)



     W                   W                   W                 
E||-------------------|-------------------|-------------------|
B||-------------------|-------------------|-------------------|
G||-------------------|-------------------|-------------------|
D||-------------------|-------------------|-------------------|
A||-------------------|-------------------|-------------------|
E||-------------------|-------------------|-------------------|


  W                   W                   W                   W                 
-------------------|-------------------|-------------------|-------------------|
-------------------|-------------------|-------------------|-------------------|
-------------------|-------------------|-------------------|-------------------|
-------------------|-------------------|-------------------|-------------------|
-------------------|-------------------|-------------------|-------------------|
-------------------|-------------------|-------------------|-------------------|


  H.           Q        H.            Q        H.           Q      
---------------------|----------------------|---------------------|
---------------------|----------------------|---------------------|
---------------------|---------------10s----|--7------------------|
---------------------|---------------10s----|--7------------3/----|
---------------3s----|--5-------------------|---------------------|
---------------------|----------------------|---------------------|


  H.            Q        H.           Q        H.            Q      
----------------------|---------------------|----------------------|
----------------------|---------------------|----------------------|
--7------------10s----|--7------------------|---------------10s----|
---------------10s----|--7------------------|---------------10s----|
----------------------|---------------3s----|--5-------------------|
----------------------|---------------------|----------------------|


  H.           Q        H.            Q        H.           Q      
---------------------|----------------------|---------------------|
---------------------|----------------------|---------------------|
--7------------------|---------------10s----|--7------------------|
--7------------------|---------------10s----|--7------------3S----|
---------------3s----|--5-------------------|---------------------|
---------------------|----------------------|---------------------|


    H.            Q        H.           Q        H.            Q      
------------------------|---------------------|----------------------|
---15-------------------|---------------------|----------------------|
------------------------|---------------------|---------------10s----|
--(15)------------------|---------------------|---------------10s----|
------------------3s----|--5------------3s----|--5-------------------|
------------------------|---------------------|----------------------|


  H.           Q       Q    Q    Q    Q       Q    E  S   S  Q.      S S  
--------------------|----------------------|-----------------------------|
--------------------|----------------------|-----------------------------|
--7-----------------|----------------------|-----------------------------|
--7-----------------|----------------------|----------------12\------L---|
--------------------|--8----7----5----3----|--5-------5s-12--------------|
--------------------|----------------------|-----------------------------|


   Q    Q    Q    Q       H        H            Q    Q    Q    S  S  E   
-----------------------|--------------------|---------------------------|
-----------------------|--------------------|--10----8----6----5s-6s-5--|
--10----9----7----5----|--7-----------------|---------------------------|
-----------------------|--------------------|---------------------------|
-----------------------|--------------------|---------------------------|
-----------------------|--------------------|---------------------------|


  Q    H.              Q    Q    Q    Q         H        H         
--------------------|-----------------------|---------------------|
--3-----------------|-----------------------|---------------------|
--------------------|-----------------------|---------------------|
--------------------|-----------------------|---------------------|
--------------------|--8----7----5----3S----|--10-----------------|
--------------------|-----------------------|---------------------|


  H.           Q         H.            E  E      E    H        S S S  S S S  
---------------------|--10S------------L------|-----------------------------|
---------------3S----|--10S------------L------|-----------------------------|
---------------------|--------------------2S--|--7s--10--------7---7s-5---7-|
---------------------|------------------------|-------------------------7---|
---------------------|------------------------|-----------------------------|
---------------------|------------------------|-----------------------------|


  H.            Q        H.           Q        H.            Q      
----------------------|---------------------|----------------------|
----------------------|---------------------|----------------------|
--L------------10s----|--7------------------|---------------10s----|
----------------------|---------------------|---------------10s----|
----------------------|---------------3s----|--5-------------------|
----------------------|---------------------|----------------------|


  H.           Q        H.            Q        H.           Q      
---------------------|----------------------|---------------------|
---------------------|----------------------|---------------------|
--7------------------|---------------10s----|--7------------2s----|
--7------------------|---------------10s----|--7------------------|
---------------3s----|--5-------------------|---------------------|
---------------------|----------------------|---------------------|


  H.           Q        H.           Q       Q    Q    Q    Q     
---------------------|--------------------|----------------------|
---------------------|--------------------|----------------------|
--7------------------|--------------------|----------------------|
---------------------|--------------------|----------------------|
---------------8s----|--5-----------------|--8----7----5----3----|
---------------------|--------------------|----------------------|


  Q    E  S   S  Q.      S S     Q    Q    Q    Q       W                 
-----------------------------|-----------------------|-------------------|
-----------------------------|-----------------------|-------------------|
-----------------------------|--10----9----7----5----|--7----------------|
----------------12\------L---|-----------------------|-------------------|
--5-------5s-12--------------|-----------------------|-------------------|
-----------------------------|-----------------------|-------------------|


   Q    Q    Q    S  S  E     Q    H.              Q    Q    Q    Q      
---------------------------|--------------------|-----------------------|
--10----8----6----5s-6s-5--|--3-----------------|-----------------------|
---------------------------|--------------------|-----------------------|
---------------------------|--------------------|-----------------------|
---------------------------|--------------------|--8----7----5----3S----|
---------------------------|--------------------|-----------------------|


   H        H           W                   W                 
---------------------|-------------------|-------------------|
---------------------|-------------------|-------------------|
---------------------|-------------------|-------------------|
---------------------|-------------------|-------------------|
--10-----------------|-------------------|-------------------|
---------------------|-------------------|-------------------|


  W                   W                   W                   W                 
-------------------|-------------------|-------------------|-------------------|
-------------------|-------------------|-------------------|-------------------|
-------------------|-------------------|-------------------|-------------------|
-------------------|-------------------|-------------------|-------------------|
-------------------|-------------------|-------------------|-------------------|
-------------------|-------------------|-------------------|-------------------|


  W                   W                   Q.      E  E  E  Q     
-------------------|-------------------|-------------8--9-------|
-------------------|-------------------|---------10-------------|
-------------------|-------------------|------------------------|
-------------------|-------------------|------------------------|
-------------------|-------------------|------------------------|
-------------------|-------------------|------------------------|


   Q.      Q.       E   E     Q.     Q      E   Q      
--10------10S------(3)-----|--6------6\----(0)--------|
--10------10S-------3s--6--|--6------6\----(0)--------|
---------------------------|--------------------------|
---------------------------|--------------------3s----|
---------------------------|--------------------------|
---------------------------|--------------------------|


    H          S  S   S  S  E   S   S     Q.      Q.      Q      
--------------------------------------|-------------------------|
--------------------------------------|-------------------------|
--------------------------------------|-------------------2S----|
---10---------10s-8--------10--10s-12-|----------12S------------|
--(10)--------------(10)--------------|--12------12S------------|
--------------------------------------|-------------------------|


  Q.     H         S  S      Q.      Q     E    Q     
-------------------------|---------------------------|
-------------------------|---------------------------|
--7------7--------10s-9s-|--10------10----10s--14----|
--7------7--------10s-9s-|--10------10----10s--14----|
-------------------------|---------------------------|
-------------------------|---------------------------|


   Q.      H         S   S      Q.      S   S   Q     Q      
----------------------------|-------------------------------|
----------------------------|------------------------14S----|
--12------12--------14s-13s-|--14------17s-16s-17----14S----|
--12------12--------14s-13s-|--14------17s-16s-17-----------|
----------------------------|-------------------------------|
----------------------------|-------------------------------|


   Q    Q    Q    Q         H        H           H.           Q      
------------------------|---------------------|---------------------|
------------------------|---------------------|---------------3S----|
--10----9----7----5S----|--12-----------------|---------------------|
------------------------|---------------------|---------------------|
------------------------|---------------------|---------------------|
------------------------|---------------------|---------------------|


   Q.      Q     Q    S S      Q.       E.  S  S S  S   S  S  S   
--10------10S----L---------|-------------------------------------|
--10------10S----L---------|-------------------------------------|
------------------------5s-|--10s------12------------------------|
---------------------------|------------------12---12s-10----12s-|
---------------------------|------------------------------12-----|
---------------------------|-------------------------------------|


   H.            E.  S    E   E  S S E  E  S E  S E       H.            Q      
-----------------------|------------------------------|-----------------------|
-----------------------|------------------------------|-----------------------|
-----------------------|------------------------------|----------------10s----|
---L------------10-----|------------------------------|-----------------------|
-----------------------|-----10----8------------------|-----------------------|
-----------------------|----------------8----8----8s--|--10-------------------|


  H.           Q        H.            Q        H.           Q      
---------------------|----------------------|---------------------|
---------------------|----------------------|---------------------|
--7------------------|---------------10s----|--7------------------|
---------------------|---------------10s----|--7------------0S----|
---------------3s----|--5-------------------|---------------------|
---------------------|----------------------|---------------------|


  H.           Q        H.           Q        H.            Q      
---------------------|---------------------|----------------------|
---------------------|---------------------|----------------------|
--7------------------|---------------------|---------------10s----|
---------------------|---------------------|---------------10s----|
---------------8s----|--5------------3s----|--5-------------------|
---------------------|---------------------|----------------------|


  H.           Q       Q    Q    Q    Q       Q    E  S   S  Q.      S S  
--------------------|----------------------|-----------------------------|
--------------------|----------------------|-----------------------------|
--7-----------------|----------------------|-----------------------------|
--7-----------------|----------------------|----------------12S------L---|
--------------------|--8----7----5----3----|--5-------5s-12--------------|
--------------------|----------------------|-----------------------------|


   Q    Q    Q    Q       H        H            Q    Q    Q    S  S  E   
-----------------------|--------------------|---------------------------|
-----------------------|--------------------|--10----8----6----5s-6s-5--|
--10----9----7----5----|--7-----------------|---------------------------|
-----------------------|--------------------|---------------------------|
-----------------------|--------------------|---------------------------|
-----------------------|--------------------|---------------------------|


  Q    H.              Q    Q    Q    Q         H        H         
--------------------|-----------------------|---------------------|
--3-----------------|-----------------------|---------------------|
--------------------|-----------------------|---------------------|
--------------------|-----------------------|---------------------|
--------------------|--8----7----5----3S----|--10-----------------|
--------------------|-----------------------|---------------------|


                                                                       |-3-|   
  H.           Q        H.           S S   E       H        S E  S E   S S S   
---------------------|-------------------------|--------------8----8S--L------|
---------------------|-------------------------|------------------------------|
---------------------|--7------------L-7s-10~--|---L--------L--------------7s-|
---------------0S----|--7------------L---------|------------------------------|
---------------------|-------------------------|------------------------------|
---------------------|-------------------------|------------------------------|


  |--|                                                    
  S  E   H        E  S  S S S     H        S S S Q     S  
-------------------------------|-------------------------|
-------------------------------|-------------------------|
--L-10S--L--------L--7s-5---7h-|--L--------L-5---7\------|
--------------------------7----|---------------7---------|
-------------------------------|-------------------------|
-------------------------------|-------------------------|


   Q    Q    Q    Q        W                   W                  
------------------------|-------------------|-------------------||
------------------------|-------------------|-------------------||
--10----9----7----5S----|--7----------------|--L----------------||
------------------------|--7----------------|--L----------------||
------------------------|-------------------|-------------------||
------------------------|-------------------|-------------------||




Duration Legend
---------------
W - whole
H - half
Q - quarter
E - 8th
S - 16th
T - 32nd
X - 64th
. - note dotted
|-n-|  - n-tuplets


Tablature Legend
----------------
L - tied note
x - dead note
g - grace note
(n) - ghost note
> - accentuded note
NH - natural harmonic
AH - artificial harmonic
TH - tapped harmonic
SH - semi harmonic
PH - pitch harmonic
h - hammer on
p - pull off
b - bend
br - bendRelease
pb - preBend
pbr - preBendRelease
brb - bendReleaseBend
\n/ - tremolo bar dip
\n - tremolo bar dive
-/n - tremolo bar Release up
/n\ - tremolo bar inverted dip
/n - tremolo bar return
-\n - tremolo bar Release down
S - shift slide
s - legato slide
/ -  slide into from below or out of upwards
\ -  slide into from above or out of downwards
~ - vibrato
W - wide vibrato
tr - trill
TP - tremolo picking
T - tapping
S - slap
P - pop
< - fade in
^ - brush up
v - brush down
Добавлено: 21.06.2012
Другие материалы по этой песне:

Страница создана 25.02.2012
http://primanota.ru/lynyrd-skynyrd/travellin-man-chords.htm
Привет, Гость.
Предлагаем пройти революционный курс по гитаре.
Подарок от PrimaNota.Ru, забирай!