PrimaNota.ru - самый крупный в мире бесплатный архив песенных текстов, аккордов, табулатур и нот


Lynch Mob - Wicked Sensation - текст песни, таба, бас-таба, видео

Регистрация Запомнить меня
Войти через:  Facebook Google Twitter Vk Yandex Mail.ru

Lynch Mob - Wicked Sensation - текст песни, таба, бас-таба, видео

Печатать
Просмотров: 144
YOU MIGHT HAVE TO PAIST THIS IN NOTEPAD TO READ IT CORRECTLY. 

ARTIST-lynch mob
Song-wicked sensation


*  harmonic
b  bend
~  vibrato

                       Wicked Sensation 

                            Intro 

    |------------------------| |-------------------------|    
    |------------------------| |-------------------------|    
    |------------------------| |-------------------------|    
    |-3-----5-----4-3-3h5p3--| |-3-----5-----4-3-2b-2*b~-| 
    |-3-3-3-3-3-3-3-3-3------| |-3-3-3-3-3-3-3-3---------|    
    |------------------------| |-------------------------| 
P.M.     ___   ___                  ___   ___     

    |------------------------| |------------------------------|    
    |------------------------| |------------------------------|    
    |------------------------| |------------------------------|    
    |-3-----5-----4-3-3h5p3--| |-3-----5-----4-3--------------| 
    |-3-3-3-3-3-3-3-3-3------| |-3-3-3-3-3-3-3-3--------------|    
    |------------------------| |-----------------1p0-1p0-2-0--| 
P.M.     ___   ___                  ___   ___     

			    This is the main riff------------------------------|
   /-----------------------------------------------------------------------\   |
   |              (3 times)              then                              |   |
   |     |------------------------|      |------------------------------|  |___|
   |     |------------------------|      |------------------------------|  | 
   |     |------------------------|      |------------------------------|  | 
   |     |-3-----5-----4-3-3h5p3--|      |-3-----5-----4-3--------------|  | 
   |     |-3-3-3-3-3-3-3-3-3------|      |-3-3-3-3-3-3-3-3--------------|  |    
   |     |------------------------|      |-----------------1p0-1p0-2----|  | 
   |         ___   ___                       ___   ___                     | 
   |                                                                       | 
   |              (3 times)              then                              |
   |     |------------------------|      |------------------------------|  | 
   |     |------------------------|      |------------------------------|  | 
   |     |------------------------|      |------------------------------|  |
   |     |-3-----5-----4-3-3h5p3--|      |-3-----5-----4-3--------------|  | 
   |     |-3-3-3-3-3-3-3-3-3------|      |-3-3-3-3-3-3-3-3--------------|  |    
   |     |------------------------|      |-----------------1p0-1p0-2----|  | 
   |         ___   ___                       ___   ___                     | 
   |                                                                       | 
   |         (3 times)                   then                              | 
   |     |------------------------|      |------------------------------|  | 
   |     |------------------------|      |------------------------------|  | 
   |     |------------------------|      |------------------------------|  | 
   |     |-3-----5-----4-3-3h5p3--|      |-3-----5-----4-3-3h5p3-3-3----|  |
   |     |-3-3-3-3-3-3-3-3-3------|      |-3-3-3-3-3-3-3-3-3-----3-3----|  |    
   |     |------------------------|      |------------------------------|  | 
   |         ___   ___                       ___   ___                     | 
   \-----------------------------------------------------------------------/ 


					___
|-----------------------| 		   |
|---------6----------6--| 		   |
|-------5----------5----| 		   |
|-----5----------5------| 		   |
|---3----------3--------| 		   |
|-----------------------| 		   |
       _       _ 			   |
					   |----Chorus
|----------------------------| 		   |
|----------------------------| 		   |
|----------------------------| 		   |
|---3h5*-3-----1--3h5--3-----| 		   |
|---3----3--3--1--3----3--1--| 		   |
|-----------1-------------3--| 		   |
					___|

|-------------------------------------------------| 
|-------------------------------------------------| 
|-------------------------------------------------| 
|---3h5--3--3h5--3--3h5--3h5-3--3h5-3-3h5--5~-3~--| 
|---3----3--3----3--3----3---3--3---3-3----3~-3~--| 
|-------------------------------------------------| 
     _       _           _      _ 

|-------------------------------| 
|-------------------------------| 
|-------------------------------| 
|---3h5*-3-----1--3h5*-3----2*--| 
|---3----3--3--1--3----3--------| 
|-----------1-------------3-----|
Добавлено: 16.06.2012
Вам также может быть интересно:
Другие материалы по этой песне:

Страница создана 30.03.2012
http://primanota.ru/lynch-mob/wicked-sensation-chords.htm
Привет, Гость.
Предлагаем пройти революционный курс по гитаре.
Подарок от PrimaNota.Ru, забирай!