PrimaNota.ru - самый крупный в мире бесплатный архив песенных текстов, аккордов, табулатур и нот


Lynch Mob - Tangled In The Web - текст песни, бас-таба, видео

Регистрация Запомнить меня
Войти через:  Facebook Google Twitter Vk Yandex Mail.ru

Lynch Mob - Tangled In The Web - текст песни, бас-таба, видео

Печатать
Просмотров: 95
-------------------------------------------------------------------------------
			     TANGLED IN THE WEB - Lynch Mob
-------------------------------------------------------------------------------

Tabbed By : Isaias Garcia (TexasFury)

Tuning: 1/2 step down



      W                   W                   W                   W                 
F#||-------------------|-------------------|-------------------|-------------------|
C#||-------------------|-------------------|-------------------|-------------------|
G#||-------------------|-------------------|-------------------|-------------------|
D#||-------------------|-------------------|-------------------|-------------------|


  W                   W                   W                   W                   H         
-------------------|-------------------|-------------------|-------------------|-----------|
-------------------|-------------------|-------------------|-------------------|-----------|
-------------------|-------------------|-------------------|-------------------|-----------|
-------------------|-------------------|-------------------|-------------------|-----------|


  E  E  E  E  E   E  E  E     E  E  E  E  E   E  E  E     E  E  E  E  E   E  E  E   
---------------------------|---------------------------|---------------------------|
---------------------------|---------------------------|---------------------------|
--------1-----3b--L--1-----|--------1-----3b--L--1-----|--------1-----3b--L--1-----|
--3--3-----3------------1--|--3--3-----3------------1--|--3--3-----3------------1--|


  E  E  E  E  E   E  E  E     E  E  E  E  E   E  E  E     E  E  E  E  E   E  E  E   
---------------------------|---------------------------|---------------------------|
---------------------------|---------------------------|---------------------------|
--------1-----3b--L--1-----|--------1-----3b--L--1-----|--------1-----3b--L--1-----|
--3--3-----3------------1--|--3--3-----3------------1--|--3--3-----3------------1--|


  E  E  E  E  E   E  E  E     E  E  E  E  E  E  E  E     E  E  E  E  E   E  E  E   
---------------------------|--------------------------|---------------------------|
---------------------------|--------------------------|---------------------------|
--------1-----3b--L--1-----|--------------------------|--------1-----3b--L--1-----|
--3--3-----3------------1--|--3--3--0--0--1--1--2--2--|--3--3-----3------------1--|


  E  E  E  E  E   E  E  E     E  E  E  E  E   E  E  E     E  E  E  E  E   E  E  E   
---------------------------|---------------------------|---------------------------|
---------------------------|---------------------------|---------------------------|
--------1-----3b--L--1-----|--------1-----3b--L--1-----|--------1-----3b--L--1-----|
--3--3-----3------------1--|--3--3-----3------------1--|--3--3-----3------------1--|


  E  E  E  E  E   E  E  E     E  E  E  E  E   E  E  E     E  E  E  E  E   E  E  E   
---------------------------|---------------------------|---------------------------|
---------------------------|---------------------------|---------------------------|
--------1-----3b--L--1-----|--------1-----3b--L--1-----|--------1-----3b--L--1-----|
--3--3-----3------------1--|--3--3-----3------------1--|--3--3-----3------------1--|


  E  E  E  E  E   E  E  E     E  E  E  E  Q       E  E  E  E  Q    E  E   
---------------------------|-------------------|-------------------------|
---------------------------|--1--0-------------|--3--2-------------2--3--|
--------1-----3b--L--1-----|--------3--1--L----|--------5--3--L----------|
--3--3-----3------------1--|-------------------|-------------------------|


  E  E  E  E  E   E  E  E     E  E  E  E  E   E  E  E     E  E  E  E  Q       E  E  E  E  Q     
---------------------------|---------------------------|-------------------|-------------------|
---------------------------|---------------------------|--1--0-------------|--3--2-------------|
--------1-----3b--L--1-----|--------1-----3b--L--1-----|--------3--1--L----|--------5--3--L----|
--3--3-----3------------1--|--3--3-----3------------1--|-------------------|-------------------|


  E  E  E  E  E  E  E  E     E  E  E  E  E  E  E  E     E  E  E  E  E  E  E  E   
--------------------------|--------------------------|--------------------------|
--------------------------|--------------------------|--------------------------|
--------------------------|--------------------------|--------------------------|
--3--3--L--3--3--3--L--3--|--3--3--L--3--3--3--L--3--|--3--3--L--3--3--3--L--3--|


  E  E  E  E  E  E  E  E     E  E  E  E  E  E  E  E     E  E  E  E  E  E  E  E   
--------------------------|--------------------------|--------------------------|
--------------------------|--------------------------|--------------------------|
--------------------------|--------------------------|--------------------------|
--3--3--0--0--1--1--2--2--|--3--3--L--3--3--3--1--3--|--3--3--L--3--3--3--L--3--|


  Q.     E  H           E  E  E  E  E   E  E  E     E  E  E  E  E   E  E  E   
---------------------|---------------------------|---------------------------|
---------------------|---------------------------|---------------------------|
--1------3--L--------|--------1-----3b--L--1-----|--------1-----3b--L--1-----|
---------------------|--3--3-----3------------1--|--3--3-----3------------1--|


  E  E  E  E  E   E  E  E     E  E  E  E  E   E  E  E     E  E  E  E  E   E  E  E   
---------------------------|---------------------------|---------------------------|
---------------------------|---------------------------|---------------------------|
--------1-----3b--L--1-----|--------1-----3b--L--1-----|--------1-----3b--L--1-----|
--3--3-----3------------1--|--3--3-----3------------1--|--3--3-----3------------1--|


  E  E  E  E  E   E  E  E     E  E  E  E  E   E  E  E     E  E  E  E  E   E  E  E   
---------------------------|---------------------------|---------------------------|
---------------------------|---------------------------|---------------------------|
--------1-----3b--L--1-----|--------1-----3b--L--1-----|--------1-----3b--L--1-----|
--3--3-----3------------1--|--3--3-----3------------1--|--3--3-----3------------1--|


  E  E  E  E  E   E  E  E     E  E  E  E  E   E  E  E     E  E  E  E  E   E  E  E   
---------------------------|---------------------------|---------------------------|
---------------------------|---------------------------|---------------------------|
--------1-----3b--L--1-----|--------1-----3b--L--1-----|--------1-----3b--L--1-----|
--3--3-----3------------1--|--3--3-----3------------1--|--3--3-----3------------1--|


  E  E  E  E  E   E  E  E     E  E  E  E  Q       E  E  E  E  Q    E  E   
---------------------------|-------------------|-------------------------|
---------------------------|--1--0-------------|--3--2-------------2--3--|
--------1-----3b--L--1-----|--------3--1--L----|--------5--3--L----------|
--3--3-----3------------1--|-------------------|-------------------------|


  E  E  E  E  E   E  E  E     E  E  E  E  E   E  E  E     E  E  E  E  Q       E  E  E  E  Q     
---------------------------|---------------------------|-------------------|-------------------|
---------------------------|---------------------------|--1--0-------------|--3--2-------------|
--------1-----3b--L--1-----|--------1-----3b--L--1-----|--------3--1--L----|--------5--3--L----|
--3--3-----3------------1--|--3--3-----3------------1--|-------------------|-------------------|


  E  E  E  E  E  E  E  E     E  E  E  E  E  E  E  E     E  E  E  E  E  E  E  E   
--------------------------|--------------------------|--------------------------|
--------------------------|--------------------------|--------------------------|
--------------------------|--------------------------|--------------------------|
--3--3--L--3--3--3--L--3--|--3--3--L--3--3--3--L--3--|--3--3--L--3--3--3--L--3--|


  E  E  E  E  E  E  E  E     E  E  E  E  E  E  E  E     E  E  E  E  E  E  E  E   
--------------------------|--------------------------|--------------------------|
--------------------------|--------------------------|--------------------------|
--------------------------|--------------------------|--------------------------|
--3--3--0--0--1--1--2--2--|--3--3--L--3--3--3--1--3--|--3--3--L--3--3--3--L--3--|


  Q.     E  H           E  E  E  E  E  E  E  E     E  E  E  E  E  E  E  E   
---------------------|--------------------------|--------------------------|
---------------------|--------------------------|--------------------------|
--1------3--L--------|--------------------------|--------------------------|
---------------------|--3--3--L--3--3--3--L--3--|--3--3--L--3--3--3--L--3--|


  E  E  E  E  E  E  E  E     E  E  E  E  E  E  E  E     E  E  E  E  E  E  E  E   
--------------------------|--------------------------|--------------------------|
--------------------------|--------------------------|--------------------------|
--------------------------|--------------------------|--------------------------|
--3--3--L--3--3--3--L--3--|--3--3--0--0--1--1--2--2--|--3--3--L--3--3--3--L--3--|


  E  E  E  E  E  E  E  E     Q.     E  Q.     E     E  E  H.              Q.     E  H         
--------------------------|----------------------|---------------------|---------------------|
--------------------------|----------------------|---------------------|---------------------|
--------------------------|--1------3--L---------|---------------------|--1------3--L--------|
--3--3--L--3--3--3--L--3--|-------------------1--|--L--3--3------------|---------------------|


  E  E  E  E  E   E  E  E     E  E  E  E  E   E  E  E     E  E  E  E  E   E  E  E   
---------------------------|---------------------------|---------------------------|
---------------------------|---------------------------|---------------------------|
--------1-----3b--L--1-----|--------1-----3b--L--1-----|--------1-----3b--L--1-----|
--3--3-----3------------1--|--3--3-----3------------1--|--3--3-----3------------1--|


  E  E  E  E  E  E  E  E     E  E  E  E  E   E  E  E     E  E  E  E  E   E  E  E   
--------------------------|---------------------------|---------------------------|
--------------------------|---------------------------|---------------------------|
--------------------------|--------1-----3b--L--1-----|--------1-----3b--L--1-----|
--3--3--0--0--1--1--2--2--|--3--3-----3------------1--|--3--3-----3------------1--|


  E  E  E  E  E   E  E  E       E  E  E   E  E  E  E  E     E  E  E  E  E   E  E  E   
-----------------------------|---------------------------|---------------------------|
-----------------------------|---------------------------|---------------------------|
--------1-----3b--L--1--3br--|--L--1--3b--L--------------|--------1-----3b--L--1-----|
--3--3-----3-----------------|---------------1--1--2--2--|--3--3-----3------------1--|


  E  E  E  E  E   E  E  E     E  E  E  E  E   E  E  E     E  E  E  E  E  E  E  E   
---------------------------|---------------------------|--------------------------|
---------------------------|---------------------------|--------------------------|
--------1-----3b--L--1-----|--------1-----3b--L--1-----|--------------------------|
--3--3-----3------------1--|--3--3-----3------------1--|--3--3--0--0--1--1--2--2--|


  E  E  E  E  E   E  E  E     E  E  E  E  E   E  E  E     E  E  E  E  E   E  E  E   
---------------------------|---------------------------|---------------------------|
---------------------------|---------------------------|---------------------------|
--------1-----3b--L--1-----|--------1-----3b--L--1-----|--------1-----3b--L--1-----|
--3--3-----3------------1--|--3--3-----3------------1--|--3--3-----3------------1--|


  E  E  E  E  E   E  E  E     E  E  E  E  Q       E  E  E  E  Q    E  E   
---------------------------|-------------------|-------------------------|
---------------------------|--1--0-------------|--3--2-------------2--3--|
--------1-----3b--L--1-----|--------3--1--L----|--------5--3--L----------|
--3--3-----3------------1--|-------------------|-------------------------|


  E  E  E  E  E   E  E  E     E  E  E  E  E   E  E  E     E  E  E  E  Q     
---------------------------|---------------------------|-------------------|
---------------------------|---------------------------|--1--0-------------|
--------1-----3b--L--1-----|--------1-----3b--L--1-----|--------3--1--L----|
--3--3-----3------------1--|--3--3-----3------------1--|-------------------|


  E  E  E  E  Q    E  E     E  E  E  E  E  E  E  E     E  E  E  E  E  E  E  E   
-------------------------|--------------------------|--------------------------|
--3--2-------------------|--------------------------|--------------------------|
--------5--3--L----------|--------------------------|--------------------------|
-------------------1--2--|--3--3--L--3--3--3--L--3--|--3--3--L--3--3--3--L--3--|


  E  E  E  E  E  E  E  E     E  E  E  E  E  E  E  E     E  E  E  E  E  E  E  E   
--------------------------|--------------------------|--------------------------|
--------------------------|--------------------------|--------------------------|
--------------------------|--------------------------|--------------------------|
--3--3--L--3--3--3--L--3--|--3--3--0--0--1--1--2--2--|--3--3--L--3--3--3--L--3--|


  E  E  E  E  E  E  E  E     Q.     E  H           E  E  E  E  E  E  E  E   
--------------------------|---------------------|--------------------------|
--------------------------|---------------------|--------------------------|
--------------------------|--1------3--L--------|--------------------------|
--3--3--L--3--3--3--L--3--|---------------------|--3--3--L--3--3--3--L--3--|


  E  E  E  E  E  E  E  E     E  E  E  E  E  E  E  E     E  E  E  E  E  E  E  E   
--------------------------|--------------------------|--------------------------|
--------------------------|--------------------------|--------------------------|
--------------------------|--------------------------|--------------------------|
--3--3--L--3--3--3--L--3--|--3--3--L--3--3--3--L--3--|--3--3--0--0--1--1--2--2--|


  E  E  E  E  E  E  E  E     E  E  E  E  E  E  E  E     Q.     E  Q.     E     E  E  H.            
--------------------------|--------------------------|----------------------|-------------------|
--------------------------|--------------------------|----------------------|-------------------|
--------------------------|--------------------------|--1------3--L---------|-------------------|
--3--3--L--3--3--3--L--3--|--3--3--L--3--3--3--L--3--|-------------------1--|--L--3--3----------|


  Q.     E  Q.     E     E  E  H.              Q.     E  Q.     E     E  E  H.            
----------------------|---------------------|----------------------|---------------------|
----------------------|---------------------|----------------------|---------------------|
--1------3--L---------|---------------------|--1------3--L---------|---------------------|
-------------------1--|--L--3--3------------|-------------------1--|--L--3--3------------|


  Q.     E  Q.     E     E  E  H.              W                   W                 
----------------------|---------------------|-------------------|-------------------|
----------------------|---------------------|-------------------|-------------------|
--1------3--L---------|---------------------|-------------------|-------------------|
-------------------1--|--L--3--3------------|--L----------------|--L----------------|


  W                   W                  
-------------------|-------------------||
-------------------|-------------------||
-------------------|-------------------||
--L----------------|--L----------------||




Duration Legend
---------------
W - whole
H - half
Q - quarter
E - 8th
S - 16th
T - 32nd
X - 64th
. - note dotted
|-n-|  - n-tuplets


Tablature Legend
----------------
L - tied note
x - dead note
g - grace note
(n) - ghost note
> - accentuded note
NH - natural harmonic
AH - artificial harmonic
TH - tapped harmonic
SH - semi harmonic
PH - pitch harmonic
h - hammer on
p - pull off
b - bend
br - bendRelease
pb - preBend
pbr - preBendRelease
brb - bendReleaseBend
\n/ - tremolo bar dip
\n - tremolo bar dive
-/n - tremolo bar Release up
/n\ - tremolo bar inverted dip
/n - tremolo bar return
-\n - tremolo bar Release down
S - shift slide
s - legato slide
/ -  slide into from below or out of upwards
\ -  slide into from above or out of downwards
~ - vibrato
W - wide vibrato
tr - trill
TP - tremolo picking
T - tapping
S - slap
P - pop
< - fade in
^ - brush up
v - brush down

Добавлено: 21.07.2012
Вам также может быть интересно:
Другие материалы по этой песне:

Страница создана 25.03.2012
http://primanota.ru/lynch-mob/tangled-in-the-web-chords.htm
Привет, Гость.
Предлагаем пройти революционный курс по гитаре.
Подарок от PrimaNota.Ru, забирай!