PrimaNota.ru - самый крупный в мире бесплатный архив песенных текстов, аккордов, табулатур и нот


Lync - Uberrima Fides - бас-таба, видео

Регистрация Запомнить меня
Войти через:  Facebook Google Twitter Vk Yandex Mail.ru

Lync - Uberrima Fides - бас-таба, видео

Печатать
Просмотров: 36
-------------------------------------------------------------------------------
                             UBERRIMA FIDES - Lync
-------------------------------------------------------------------------------
Tabbed by: 
E-mail: 

Tuning: eadg

Intro and Verse

G|---------1-3-1-----------------|
D|----------------2-22-----------|
A|---------------------4---------| 5x
E|--4-444------------------------|

Interlude

G|--------------------------|
D|----------------------1---|
A|--2---------23------------| 4x
E|--------------------------|

Jam at the End

G|-(those are ones, not elevens)------------------------------|
D|----------11---11-------11---11--------1-4-1---------1-4-1--|
A|--2-222----- 2-----2-222--2----1-11-----------1-11----------|
E|------------------------------------2-------------2---------|



| /  slide up
| \  slide down
| h  hammer-on
| p  pull-off
| ~  vibrato
| +  harmonic
| x  Mute note
===============================================================================
Добавлено: 02.09.2015
Вам также может быть интересно:
Другие материалы по этой песне:
  • Аккорды и текст

Страница создана 02.09.2015
http://primanota.ru/lync/uberrima-fides-chords.htm
Привет, Гость.
Предлагаем пройти революционный курс по гитаре.
Подарок от PrimaNota.Ru, забирай!