PrimaNota.ru - самый крупный в мире бесплатный архив песенных текстов, аккордов, табулатур и нот


Lync - Hands And Knees - таба, видео

Регистрация Запомнить меня
Войти через:  Facebook Google Twitter Vk Yandex Mail.ru

Lync - Hands And Knees - таба, видео

Печатать
Просмотров: 113
Sent:   Tuesday, January 06, 1998 8:57 PM


Author/Artist: lync
Title: hands and knees
Album: remebering the fireballs (part 8)
Transcribed by: Dexy
Email: dexy@geocities.com

Intro/Verse

(G)                              (C maj 7)                         (G)
---3-----3-----3-----3-----3------------------------------------------------|
-----3-----3-----3-----3-----3--------3-----3-----3-----3-------------3-----|
-------0-----0-----0-----0--------------0-----0-----0-----0----0--------0---|
----------------------------------2-------2-----2-----2-----2--0---0------0-|
-2--------------------------------3--------------------------------2--------|
-3--------------------------------------------------------------------------|


------------------------------------------|
-3-----3-----3-----3----------------------|
---0-----0-----0-----0--------------------|
-----0-----0-----0------------------------|
-------------------------0-h-2--3--2------|
--------------------------------------3-0-|


Chorus (w/ distortion)

--3-3-3-3-3-3--x-x-x-x-x-x--3-3-3-3-3-3-3-3-3-3-3-3--3-3--3-3--3-3--3-3----|
--3-3-3-3-3-3--x-x-x-x-x-x--3-3-3-3-3-3-3-3-3-3-3-3--3-3--3-3--3-3--3-3----|
--0-0-0-0-0-0--x-x-x-x-x-x--0-0-0-0-0-0-0-0-0-0-0-0--0-0--0-0--0-0--0-0----|
--0-0-0-0-0-0--x-x-x-x-x-x--2-2-2-2-2-2-2-2-2-2-2-2--0-0--0-0--0-0--0-0----|
--2-2-2-2-2-2--x-x-x-x-x-x--3-3-3-3-3-3-3-3-3-3-3-3--2-2--2-2--2-2--2-2--0-|
--3-3-3-3-3-3--x-x-x-x-x-x-------------------------------------------------|


---------------|
---------------|
---------------|
---------------|
-h-2--3--2-----|
-----------3-0-|


Bridge (w/ Distortion)

---------------------------------------------------------------------------|
---------------------------------------------------------------------------|
---------------------------------------------------------------------------|
-0-0-0-0-0-0-0-0---0-0-0-0-0-0-0-0-----------------------------------------|
-2-2-2-2-2-2-2-2---0-0-0-0-0-0-0-0--2-2-h-3-3-3-p-2-h-3--2-2-h-3-3-3-p-2---|
-3-3-3-3-3-3-3-3-\-1-1-1-1-1-1-1-1--0-0---0-0-0---0---0--0-0---0-0-0---0---|


Lyrics: These are as close as I can tell from Memory If you know them
Please E-mail me!!!

Verse:

(G)
>From Dusk to Dead we are
(C Maj 7)
Crawlin and runnin'
(G)
Crawl again


Chorus: I'm not sure where the changes go
I am I am Yr Fucking Ignorance
I am I am Yr Funny Freedom
Добавлено: 15.06.2012
Вам также может быть интересно:
Другие материалы по этой песне:
  • Аккорды и текст

Страница создана 22.05.2012
http://primanota.ru/lync/hands-and-knees-chords.htm
Привет, Гость.
Предлагаем пройти революционный курс по гитаре.
Подарок от PrimaNota.Ru, забирай!