PrimaNota.ru - самый крупный в мире бесплатный архив песенных текстов, аккордов, табулатур и нот


Lymphatic Phlegm - Tips Trans-jugular Intra-hepatic Porta-systemic Shunts - таба, видео

Регистрация Запомнить меня
Войти через:  Facebook Google Twitter Vk Yandex Mail.ru

Lymphatic Phlegm - Tips Trans-jugular Intra-hepatic Porta-systemic Shunts - таба, видео

Печатать
Просмотров: 82
Lymphatic Phlegm
Show-off Cadavers - The Anatomy of Self Display
(TIPS) Trans-jugular Intra-hepatic Porta-systemic Shunts

Copyright (c)  Black Hole Production 2007
Version 1.0 - 29.4.09

Transcribed By: Yaniv Dekel
Email:          lickywebster@yahoo.com


.  - palm mute           /  - slide up to
\  - slide down to       ~  - vibrato
h  - hammer on           b  - Bend
p  - pull off            Suffixes for bend
t  - tap                 f  - full bend    h - half bend
ph - pinched harmonic    q  - quarter bend t - tap bend
*  - see comment         ^  - Hold bend    r release bend
x  - Stuccatto           ~  - vibrato bend
,  - slight palm mute    () - ghost note, sustained note
"  - tremolo note        <> - Trill
L  - Left Channel        R  - Right Channel


Tuning E A D G B E


Riff A1 x2
|-----------------------------------|
|-----------------------------------|
|-----------------------------------|
|-----------------------------------|
|-5---8-7---------5---10-12---------|
|-3---6-5---------3---8--10---------|


Riff A2 x4
|---------------------------------------|
|---------------------------------------|
|---------------------------------------|
|---------------------------------------|
|-------------------------3355-55555555-|
|-3333-6655-55555555-3333---------------|


Riff A3 x4
|--------------------------------------------------|
|--------------------------------------------------|
|--------------------------------------------------|
|--------------------------------------------------|
|-5555-8877-77777777-5555-1010-12121212-12121212---|
|-3333-6655-55555555-3333-8-8--10101010-10101010---|


Passage1 x1
|L
|--------------------------------------|
|--------------------------------------|
|--------------------------------------|
|-let ring------------------------4-7--|
|-5----------33-5-6-3333-5-6-5555------|
|-3--------33--------------------------|
|
|R (riff B)
|--------------------------------------|
|--------------------------------------|
|--------------------------------------|
|---------------------------------4-7--|
|---------------5-6-3333-5-6-5555------|
|-3333-5-6-3333------------------------|


Riff B x5


Passage2 x1
|----------|
|----------|
|----------|
|----------|
|-5--------|
|-3--------|


Riff A1 x2 (2nd time L does a pickslide at the end)
Riff A2 x4
Riff B  x6

End x1
|---------------------|
|---------------------|
|---------------------|
|---------------------|
|-55555555555555555---|
|-33333333333333333---|



END
Добавлено: 10.05.2012
Другие материалы по этой песне:
  • Аккорды и текст

Страница создана 10.05.2012
http://primanota.ru/lymphatic-phlegm/tips-trans-jugular-intra-hepatic-porta-systemic-shunts-chords.htm
Привет, Гость.
Предлагаем пройти революционный курс по гитаре.
Подарок от PrimaNota.Ru, забирай!