PrimaNota.ru - самый крупный в мире бесплатный архив песенных текстов, аккордов, табулатур и нот


Lymphatic Phlegm - Necrosis Of A Rather Extensive Part Of The Jejunum-ileum - таба, видео

Регистрация Запомнить меня
Войти через:  Facebook Google Twitter Vk Yandex Mail.ru

Lymphatic Phlegm - Necrosis Of A Rather Extensive Part Of The Jejunum-ileum - таба, видео

Печатать
Просмотров: 89
Уроки эстрадного вокала в Санкт-Петербурге
Lymphatic Phlegm
Pathologist's Cadaveric Fleshfeast
Necrosis Of A Rather Extensive Part Of The Jejunum-Ileum

Copyright (c)  Bizarre Leprous Production 2002
Version 1.0 - 22.5.06

Transcribed By: Yaniv Dekel
Email:          lickywebster@yahoo.com


.  - palm mute           /  - slide up to
\  - slide down to       ~  - vibrato
h  - hammer on           b  - Bend
p  - pull off            Suffixes for bend
t  - tap                 f  - full bend    h - half bend
ph - pinched harmonic    q  - quarter bend t - tap bend
*  - see comment         ^  - Hold bend    r release bend
x  - Stuccatto           ~  - vibrato bend
,  - slight palm mute    () - ghost note, sustained note
"  - tremolo note        <> - Trill

Tuning E A D G B E

Riff A1 x2
|-------------------------------------------------------------------------|
|-------------------------------------------------------------------------|
|-------------------------------------------------------------------------|
|----------66666666----------44444444----------66666666-------------------|
|-44444444-44444444-44444444-22222222-44444444-44444444-44444444-77777777-|
|-22222222----------22222222----------22222222----------22222222-55555555-|

Transition
|L
|-----------------------------------------15qb~ --14----------------|
|---------------------------------14--------------*-------16--------|
|---------------------------------*-----------------------*---------|
|-------------------------------------------------------------------|
|--*tremolo dip-----------------------------------------------------|
|-------------------------------------------------------------------|
|
|R
|-------------------------------------------------------------------|
|-------------------------------------------------------------------|
|-------------------------------------------------------------------|
|-------------------------------------------------------------------|
|---------4-4-4-4-2-2-2-2-----------------4-4-4-4-2-2-2-2-----------|
|-2-2-2-2-----------------4-4-4-4-2-2-2-2-----------------4-4-4-4---|

Riff B x4
|-------------------------------------------------------------------|
|-------------------------------------------------------------------|
|-------------------------------------------------------------------|
|---------6-6-6-6-4-4-4-4-----------------6-6-6-6-4-4-4-4-----------|
|-4-4-4-4-4-4-4-4-2-2-2-2-6-6-6-6-4-4-4-4-4-4-4-4-2-2-2-2-6-6-6-6---|
|-2-2-2-2-----------------4-4-4-4-2-2-2-2-----------------4-4-4-4---|

Fill 1
|L
|-------------------------------------------------|
|-------------------------------------------------|
|-------------------------------------------------|
|-------------------------------------------------|
|-4-let ring--------------------------------------|
|-2-----------------------------------------------|
|
|R
|-------------------------------------------------|
|-------------------------------------------------|
|-------------------------------------------------|
|---------6-6-6-6-4-4-4-4-------------------------|
|-4-4-4-4-4-4-4-4-2-2-2-2-6-6-6-6-4-let ring------|
|-2-2-2-2-----------------4-4-4-4-2---------------|

Riff A1 x2
Riff B  x5

Fill 2
|---------------------------------|
|---------------------------------|
|---------------------------------|
|-----------------------------0h6-|
|---------4-4-4-4-2-2-2-2---------|
|-2-2-2-2-----------------4h7-----|

Riff A1 x1

|L
|-------------------------------------------------------------------------|
|----------------------------------------------14~ -----------------------|
|----------------------------------------------------------------14-------|
|----------66666666----------44444444----------------------------*--------|
|-44444444-44444444-44444444-22222222-4444444-----------4444444-----------|
|-22222222----------22222222----------2222222-----------2222222-----------|
|
|R (Riff A2)
|-------------------------------------------------------------------------|
|-------------------------------------------------------------------------|
|-------------------------------------------------------------------------|
|----------66666666----------44444444-------------------------------------|
|-44444444-44444444-44444444-22222222-4444444-----------4444444-----------|
|-22222222----------22222222----------2222222-----------2222222-----------|

Riff B x5

Riff C x4                 1-4       5
|-------------------------|---------|---------|
|-------------------------|---------|---------|
|-------------------------|---------|---------|
|-------------------------|---------|---------|
|-------------------------|---------|-4p2-5-4-|
|-2-2-2-2-4-2-2-2-5-2-2-2-|-1-1-1-1-|---------|

Riff A1 x1
Riff A2 x1

End with

|L
|-------------------------------------------------------------------|
|-------------------6---7---7-reverse dip, full bend, and dip again-|
|---------------------------*---------------------------------------|
|---------------4h7-------------------------------------------------|
|-4---------9\------------------------------------------------------|
|-2---------7\------------------------------------------------------|
|
|R
|-------------------------------------------------------------------|
|-------------------------------------------------------------------|
|-------------------------------------------------------------------|
|-------------------------------------------------------------------|
|-4-------------------------------------------------------4---------|
|-2-------------------------------------------------------2---------|
  *

END
Добавлено: 19.05.2012
Другие материалы по этой песне:
  • Аккорды и текст

Страница создана 19.05.2012
http://primanota.ru/lymphatic-phlegm/necrosis-of-a-rather-extensive-part-of-the-jejunum-ileum-chords.htm
Привет, Гость.
Предлагаем пройти революционный курс по гитаре.
Подарок от PrimaNota.Ru, забирай!