PrimaNota.ru - самый крупный в мире бесплатный архив песенных текстов, аккордов, табулатур и нот


Lymphatic Phlegm - Inhalation Of Vomitus Subsequent Pneumo-interstitial Emphysema - таба, видео

Регистрация Запомнить меня
Войти через:  Facebook Google Twitter Vk Yandex Mail.ru

Lymphatic Phlegm - Inhalation Of Vomitus Subsequent Pneumo-interstitial Emphysema - таба, видео

Печатать
Просмотров: 98
Lymphatic Phlegm
Pathologist's Cadaveric Fleshfeast
Inhalation Of Vomitus (Subsequent Pneumo-Interstitial Emphysema)

Copyright (c)  Bizarre Leprous Production 2002
Version 1.0 - 22.5.06

Transcribed By: Yaniv Dekel
Email:          lickywebster@yahoo.com


.  - palm mute           /  - slide up to
\  - slide down to       ~  - vibrato
h  - hammer on           b  - Bend
p  - pull off            Suffixes for bend
t  - tap                 f  - full bend    h - half bend
ph - pinched harmonic    q  - quarter bend t - tap bend
*  - see comment         ^  - Hold bend    r release bend
x  - Stuccatto           ~  - vibrato bend
,  - slight palm mute    () - ghost note, sustained note
"  - tremolo note        <> - Trill

Tuning E A D G B E

Bass intro

Riff A x4

|---------------------------------|
|---------------------------------|
|---------------------------------|
|---------------------------------|
|-3-3-3-3-3-3-3-3---------1---3---|
|-1-1-1-1-1-1-1-1-3-1-4-1---1-----|

Fill 1
|------------|
|------------|
|------------|
|-2----------|
|-3----------|
|-0----------|

Riff B1 x9           *Riff B2 x1
|-----------------|  |-----------------|
|-----------------|  |-----------------|
|-----------------|  |-----------------|
|-----------------|  |-----------------|
|-3-------1-1-1-1-|  |-3-------3-3-3-3-|
|-----1h3---------|  |-----1h3---------|

* At 0:35 (8th time of B1) The Right guitar plays B2 instead of B1
  and then goes back to B1.

Riff B3 x1
|-----------------|
|-----------------|
|-----------------|
|-5---------------|
|-3---5---3-------|
|-----3---1-------|


Bass passage

Riff A x8

Fill 2
|------------|
|------------|
|------------|
|-5----------|
|-3----------|
|------------|

Riff B1 x9
Riff B3 x1

END
Добавлено: 27.02.2012
Другие материалы по этой песне:
  • Аккорды и текст

Страница создана 27.02.2012
http://primanota.ru/lymphatic-phlegm/inhalation-of-vomitus-subsequent-pneumo-interstitial-emphysema-chords.htm
Привет, Гость.
Предлагаем пройти революционный курс по гитаре.
Подарок от PrimaNota.Ru, забирай!