PrimaNota.ru - самый крупный в мире бесплатный архив песенных текстов, аккордов, табулатур и нот


Lyle Lovett - If I Had A Pony - аккорды и текст, таба, видео

Регистрация Запомнить меня
Войти через:  Facebook Google Twitter Vk Yandex Mail.ru

Lyle Lovett - If I Had A Pony - аккорды и текст, таба, видео

Печатать
Просмотров: 99
Уроки эстрадного вокала в Санкт-Петербурге
If I Had A Pony
Lyle Lovett


From:  J Smith
Subject: Re: REQ: Lyle Lovett -  If I Had A Pony  -  pony.txt [1/1]


Actually, it's If I had a Boat  When I saw Lyle in concert last October
(the same week he was on the cover of National Enquirer), I was surprised
to see him play this song with the capo so far up the neck, like the 8th 
or 9th fret, but it sure made the playing of the song easier   Check it
out -- in open 'G' fingering, capo on 7th, 8th or 9th fret:




                 	IF I HAD A PONY                -- Lyle Lovett



INTRO:
   G             G               C        C/Bbass     G
     (rake)        (rake)                               (rake)
e----------0-------------0------------------------------------0-----
B--------3---3---------3---3--------------------------------3---3---
G-------0-------------0-------------0---0----0---0---------0--------
D------0-------------0----------------2--------2----------0---------
A-----2-------------2------------3---------2-------------2----------
E--3-------------3------------------------------------3-------------

  G              D              G           C  G
     (rake)
e----------0--------------------------------0------------
B--------3---3---------3--------------0-----1--0------3--
G-------0----------2-----2--------0-----0---0--0--0------    (close
D------0-------------0-----0----------------2--0---------    enough)
A-----2-------------------------------------3--2---------
E--3-------------3--------------3---3----------3----3----




 C  C/Bbass G        C     C/Bbass  G  
If ..
    C   C/Bbass G         C/Ebass       D/F#bass        
And ...(this first 'verse' 
    C      C/Bbass  G      C     C/Bbass G           turns out to be the chorus
And we ..
     G         D/F#bass     G
Just ..


    G                          C   C/Bbass    G  
And ...
            G                           D/F#bass
I ..
      G                             C     C/Bbass       G  
It'd ..
          G            D/F#bass
And ...

  (CHORUS)

verse

  (CHORUS)

(instrumental break)

verse

  (CHORUS)

     G          D/F#bass    G   C G D G
Just ..




J Smith
Sunnyvale, CA


Добавлено: 03.12.2013
Другие материалы по этой песне:
  • Аккорды и текст

Страница создана 11.06.2012
http://primanota.ru/lyle-lovett/if-i-had-a-pony-chords.htm
Привет, Гость.
Предлагаем пройти революционный курс по гитаре.
Подарок от PrimaNota.Ru, забирай!