PrimaNota.ru - самый крупный в мире бесплатный архив песенных текстов, аккордов, табулатур и нот


Lykke Li - This Trumpet in My Head - текст песни, таба, видео

Регистрация Запомнить меня
Войти через:  Facebook Google Twitter Vk Yandex Mail.ru

Lykke Li - This Trumpet in My Head - текст песни, таба, видео

Печатать
Просмотров: 149
Уроки эстрадного вокала в Санкт-Петербурге
-------------------------------------------------------------------------------
                             THIS TRUMPET IN MY HEAD - Lykke Li
-------------------------------------------------------------------------------
Tabbed by: @sabrinaokcool

Tuning: standard (no capo)

e|--------1----------------------1-------3---1--------------|
B|--1-3-4---4-3-1-/6-(x2)--1-3-4---4-3-1---1---1-4-1-4-3-1--|
G|----------------------------------------------------------|  (x2)
D|----------------------------------------------------------|
A|----------------------------------------------------------|
E|----------------------------------------------------------|

      Gm
e|-----3-----|
B|-----3-----|  play chords
G|-----3-----|  arpeggiated fast
D|-----5-----|  until end
A|-----5-----|  of the song
E|-----3-----|

I can't get that trumpet out of my head
I can't get that trumpet out of my head
I woke up and I can't get that trumpet out of my head
And you say you can't stand me when I'm quiet,
and so I shot you in my silence
I can't get that trumpet out of my head


************************************

| /   slide up
| \   slide down
| h   hammer-on
| p   pull-off
| ~   vibrato
| +   harmonic
| x   Mute note
| b   Bend
| pb  Pre-bend
| br  Bend release
| pbr Pre-bend release
| brb Bend release bend

************************************
Добавлено: 13.10.2015
Другие материалы по этой песне:
  • Аккорды и текст

Страница создана 28.09.2013
http://primanota.ru/lykke-li/this-trumpet-in-my-head-chords.htm
Привет, Гость.
Предлагаем пройти революционный курс по гитаре.
Подарок от PrimaNota.Ru, забирай!