PrimaNota.ru - самый крупный в мире бесплатный архив песенных текстов, аккордов, табулатур и нот


Lykke Li - Knocked Up - аккорды и текст, таба, видео

Регистрация Запомнить меня
Войти через:  Facebook Google Twitter Vk Yandex Mail.ru

Lykke Li - Knocked Up - аккорды и текст, таба, видео

Печатать
Просмотров: 204
Knocked Up
Lykke Li
Lykke Li - Knocked Up (Kings of Leon Cover)
Acoustic (as seen here: http://www.youtube.com/watch?v=9wasi1DmSLk)
Standard Tuning

Chords used:
  "G" "G" "Bm" "Bm"
e|-0---0----0----2-|
B|-3---0----3----3-|
G|-0---0----4----4-|
D|-0---0----4----4-|
A|-x---x----x----x-|
E|-3---3----x----x-|

In the "G"-chord, you put your pointing finger on the E string,
and your fuckyou finger on the B string. This is just to simplify
the transition into the "Bm"-chord, in which you only need to
put your ring finger and your pinky on the G and D string
(as a regular Bm-chord would be played).

  Intro/Verse (G and Bm)
e|---------0-0-------------0-0-----|
B|---3---------2-----3---------2---|
G|-----0---------0-----0---------0-|
D|-------0---------------0---------|
A|---------------------------------| \
E|-3---------------3---------------|  \
                                        repeat until chorus
e|---------0-0-------------0-0-----|  /
B|---3---------3-----3---------3---| /
G|-----4---------4-----4---------4-|
D|-4-----4---------4-----4---------|
A|---------------------------------|
E|---------------------------------|

  Chorus/Bridge (G and Bm)
e|---------------------------------|
B|---0-----0-0-------0-----0-0-----|
G|-----0-------0-------0-------0---|
D|-------0-------0-------0-------0-|
A|---------------------------------|
E|-3---------------3---------------|

e|---------2-2-------------2-2-----|
B|---2---------2-----2---------3---|
G|-----4---------4-----4---------4-|
D|-4-----4---------4-----4---------|
A|---------------------------------|
E|---------------------------------|

Structure:
The Intro/Verse-thing goes for two rounds in the intro, then
it repeats for somewhat 8 rounds in the verse, but when
Lykke sings the "where we're gonna go"-part they play the
G chord (bridge).
That's about it, a very easy song to play.
Listen to the song a few times and you'll pick the structure
up better than me explaining it.
Добавлено: 01.11.2013
Другие материалы по этой песне:
  • Аккорды и текст

Страница создана 20.04.2012
http://primanota.ru/lykke-li/knocked-up-chords.htm
Привет, Гость.
Предлагаем пройти революционный курс по гитаре.
Подарок от PrimaNota.Ru, забирай!