PrimaNota.ru - самый крупный в мире бесплатный архив песенных текстов, аккордов, табулатур и нот


Lydia - From A Tire Swing - аккорды и текст, видео

Регистрация Запомнить меня
Войти через:  Facebook Google Twitter Vk Yandex Mail.ru

Lydia - From A Tire Swing - аккорды и текст, видео

Печатать
Просмотров: 110
From A Tire Swing
Lydia
Song: "From a Tire Swing"
Artist: Lydia
Album: Devil

Tuning: Standard, chords relative to Capo 2, tabs relative to open (no capo)

Chords:
G      320033
Cadd9  032033
Em7    022033
Dsus4  200233
A      002220
D      200230
F#m    244222
E      022100


Intro:

e|----------9----------9----------12----------------------9----------12------|
B|----10---------10---------10----------10----10----10---------10------------|
G|-11----11---------11---------11----------11----11----11---------11---------|
D|---------------------------------------------------------------------------|
A|---------------------------------------------------------------------------|
E|---------------------------------------------------------------------------|

e|---------------------------------------------------------------------------|
B|---------------------------------------------------------------------------|
G|----------------------------14---13---\11---9---9/11-----------------------|
D|-7---9---11---h12---11-----------------------------------------------------|
A|---------------------------------------------------------------------------|
E|---------------------------------------------------------------------------|


Verse 1:
                           G
If I could tell you in my own words
                         Cadd9
Then I could spit it out faster
                        Em7
And then you'll have a chance, yeah you'll have a chance
                  Dsus4
Maybe I'll believe me
              G                           Cadd9
Then it goes everybody run, everybody run, oh
                    Em7
Here she goes again
                             Dsus4
Everybody run, everybody run, oh


Chorus:
                         G          Cadd9      Em7
So we just stared at the sky from a tire swing
                    Dsus4
With some water and whiskey
       G                          Cadd9
You remind me of the backyards and balconies
  Em7                  Dsus4
And all the nights I forgot already


Verse 2:

e|---------------------------------------------------------------------------|
B|---------------------------------------------------------------------------|
G|----------------------------/14---13---\11---9---9/11----------------------|
D|-7---9---11---h12---11-----------------------------------------------------|
A|---------------------------------------------------------------------------|
E|---------------------------------------------------------------------------| (x2)

             (stop)       G  
I don't know what it is about you
                           Cadd9
What kinds of demons do you run through?
                   Em7
Then she said I've been yeah she said I've been
                    Dsus4
They're never gonna leave me
              G                           Cadd9
Then it goes everybody run, everybody run, oh
                 Em7
Here we go again
                             Dsus4
Everybody run, everybody run, oh


Chorus:
                         G          Cadd9      Em7
So we just stared at the sky from a tire swing
                    Dsus4
With some water and whiskey
       G                          Cadd9
You remind me of the backyards and balconies
  Em7                  Dsus4
And all the nights I forgot already


Bridge:

   A               D               F#m                  E                  (stop)
e|---------------------------------------------------------------------------|
B|-------------------7----------------7-9-7---------------7------------------|
G|-8----6---6-8----8---9-8-6---8------------9-8-6-8-----8---9-8-6-8---9-8-6--|
D|--------9-----9-------------------9-------------------------------9--------|
A|---------------------------------------------------------------------------|
E|---------------------------------------------------------------------------|

e|----------11----------11---------14----------------------11----------14----|
B|----12----------12----------12---------12----12----12----------12----------|
G|-13----13----------13----------13---------13----13----13----------13-------|
D|---------------------------------------------------------------------------|
A|---------------------------------------------------------------------------|
E|---------------------------------------------------------------------------|


Chorus:
                         A           D         F#m
So we just stared at the sky from a tire swing
                     E
With some water and whiskey
       A                           D
You remind me of the backyards and balconies
  F#m                   E
And all the nights I forgot
                         A           D         F#m
So we just stared at the sky from a tire swing
                     E
With some water and whiskey
       A                           D
You remind me of the backyards and balconies
  F#m                   E
And all the nights I forgot already

Outro:

e|----------11----------11----------14---------------------------------------|
B|----12----------12----------12----------12----12---------------------------|
G|-13----13----------13----------13----------13------------------------------|
D|---------------------------------------------------------------------------|
A|---------------------------------------------------------------------------|
E|---------------------------------------------------------------------------| (x3)

e|----------11----------14---------------------------------------------------|
B|----12----------12----------12---------------------------------------------|
G|-13----13----------13----------13------------------------------------------|
D|---------------------------------------------------------------------------|
A|---------------------------------------------------------------------------|
E|---------------------------------------------------------------------------| (x1)
Добавлено: 07.04.2015
Другие материалы по этой песне:
  • Аккорды и текст

Страница создана 07.04.2015
http://primanota.ru/lydia/from-a-tire-swing-chords.htm
Привет, Гость.
Предлагаем пройти революционный курс по гитаре.
Подарок от PrimaNota.Ru, забирай!