PrimaNota.ru - самый крупный в мире бесплатный архив песенных текстов, аккордов, табулатур и нот


Lycanthropy - Renunciation Of God - таба, видео

Регистрация Запомнить меня
Войти через:  Facebook Google Twitter Vk Yandex Mail.ru

Lycanthropy - Renunciation Of God - таба, видео

Печатать
Просмотров: 56
Lycanthropy '2011

Album (EP):
Instinct for Vengeance

Renunciation of God
----------------------------------------------------------
1-E,
2-B,
3-G,
4-D,
5-A,
6-E.

tempo 230
----------------------------------------------------------

Fig.1

Guit.1 (4 times)

 - -------------------------------------------------------|
 - -------------------------------------------------------|
 - -------------------------------------------------------|
 - -------------------------------------------------------|
 - 12-14-12-14-12-14-12-14-15-17-15-14--------------------|
 - -0--0--0--0--0--0--0--0-0--0--0--0---------------------|

Guit.2 (2 times)

 - -------------------------------------------------------|
 - -------------------------------------------------------|
 - -------------------------------------------------------|
 - -------------------------------------------------------|
 -  9--10--9--10--9--10--9--10--12--14--15--14------------|
 -  0--0---0--0---0--0---0--0---0---0---0---0-------------|

Fig.2

use of pm

part 1 (4 times)
 - ------------------------------------------|
 - ------------------------------------------|
 - ------------------------------------------|
 - ------------------------------------------|
 - 0-2-0-2-0-2-0-2-3-5-3-2-------------------|
 - 0-0-0-0-0-0-0-0-0-0-0-0-------------------|

part 2 (1 time)

 - ---------------------------------------- -|
 - ---------------------------------------- -|
 - 7--------------------------------------- -|
 - 0--------------------------------------- -|
 - ---------------------------------------- -|
 - ---------------------------------------- -|

Fig.3

use of pm

part 1 (2 times)

 - -----------------------------------------------------------------|
 - -----------------------------------------------------------------|
 - -----------------------------------------------------------------|
 - 4\5-5-5-5-5-5-5-5\4-4-4-4-4-4-4-4\5-5-5-5-5-5-5-5\7-7-7-7-7-7-7--|
 - 2\3-3-3-3-3-3-3-3\2-2-2-2-2-2-2-2\3-3-3-3-3-3-3-3\5-5-5-5-5-5-5--|
 - 2\3-3-3-3-3-3-3-3\2-2-2-2-2-2-2-2\3-3-3-3-3-3-3-3\5-5-5-5-5-5-5--|

 part 2 (4 times)

 - ------------------------ -|
 - ------------------------ -|
 - ------------------------ -|
 - 7\9-(9)-9\7-7-7-7------- -|
 - 5\7-(7)-7\5-5-5-5------- -|
 - 5\7-(7)-7\5-5-5-5------- -|

Fig.4

part 1

 - ---------------------------------------------|
 - ---------------------------------------------|
 - ---------------------------------------------|
 - 4-4-4-4-5-5-5-5-7-7-7-7-5-5-4-4--------------|
 - 4-4-4-4-5-5-5-3-7-7-7-7-5-5-4-4--------------|
 - 2-2-2-2-3-3-3-3-5-5-5-5-3-3-2-2--------------|

part 2
- ----------------------------------------------|
 - ---------------------------------------------|
 - ---------------------------------------------|
 - 4-4-4-4-5-5-5-5-7-7-7-7-9-9-7-7--------------|
 - 4-4-4-4-5-5-5-3-7-7-7-7-9-9-7-7--------------|
 - 2-2-2-2-3-3-3-3-5-5-5-5-7-7-5-5--------------|

http://www.myspace.com/lycanthropy6black6metal6
Добавлено: 09.09.2013
Вам также может быть интересно:
Другие материалы по этой песне:
  • Аккорды и текст

Страница создана 09.09.2013
http://primanota.ru/lycanthropy/renunciation-of-god-chords.htm
Привет, Гость.
Предлагаем пройти революционный курс по гитаре.
Подарок от PrimaNota.Ru, забирай!