PrimaNota.ru - самый крупный в мире бесплатный архив песенных текстов, аккордов, табулатур и нот


Luzbel - Pasaporte Al Infierno - таба, видео

Регистрация Запомнить меня
Войти через:  Facebook Google Twitter Vk Yandex Mail.ru

Luzbel - Pasaporte Al Infierno - таба, видео

Печатать
Просмотров: 110
Уроки эстрадного вокала в Санкт-Петербурге
INTRO


   e  s s s s s s s s s s s s s s   e  s s s s s s s s s s s s s s   

e|---------------------------------------------------------------------------|
B|---------------------------------------------------------------------------|
G|-6----------------------6-6-6-6---2----------------------------------------|
D|-6----------------------6-6-6-6---2----------------------------------------|
A|-4--4-4-4-4-4-4-4-4-4-4-4-4-------0--0-0-0-0-0-0-0-0-0-0-0-0-0-0-----------|
E|---------------------------------------------------------------------------|

   e  s s s s s s s s s s s s s s   e  s s s s s s s s s e s e    

e|---------------------------------------------------------------------------|
B|---------------------------------------------------------------------------|
G|-4--------------------------------6--------------4h6-6-6---4---------------|
D|-4--------------------------------6--------------4h6-6-6---4---------------|
A|-2--2-2-2-2-2-2-2-2-2-2-2-2-2-2---4--4-4-4-4-4-4---------4-----------------|
E|---------------------------------------------------------------------------|

   e  s s s s s s s s s s s s s s   e  s s s s s s s s s s s s s s s 

e|---------------------------------------------------------------------------|
B|---------------------------------------------------------------------------|
G|-6----------------------6-6-6-6---2----------------------------------------|
D|-6----------------------6-6-6-6---2----------------------------------------|
A|-4--4-4-4-4-4-4-4-4-4-4-4-4-------0--0-0-0-0-0-0-0-0-0-0-0-0-0-0-----------|
E|---------------------------------------------------------------------------|
 
   e  s s s s s s s s s s s s s s   h    

e|---------------------------------------------------------------------------|
B|---------------------------------------------------------------------------|
G|-4--------------------------------6------X/--------------------------------|
D|-4--------------------------------6------X/--------------------------------|
A|-2--2-2-2-2-2-2-2-2-2-2-2-2-2-2---4------X/--------------------------------|
E|---------------------------------------------------------------------------|

VERSE

   e  s s s s s s s s s s s s s s   e  s s s s s s s s s s s s s s s 
  e|---------------------------------------------------------------------------|
B|---------------------------------------------------------------------------|
G|-6----------------------6-6-6-6---2----------------------------------------|
D|-6----------------------6-6-6-6---2----------------------------------------|
A|-4--4-4-4-4-4-4-4-4-4-4-4-4-------0--0-0-0-0-0-0-0-0-0-0-0-0-0-0-----------|
E|---------------------------------------------------------------------------|
  
   e  s s s s s s s s s s s s s s   e  s s s s s s s s s e s e    

e|---------------------------------------------------------------------------|
B|---------------------------------------------------------------------------|
G|-4--------------------------------6--------------4h6-6-6---4---------------|
D|-4--------------------------------6--------------4h6-6-6---4---------------|
A|-2--2-2-2-2-2-2-2-2-2-2-2-2-2-2---4--4-4-4-4-4-4---------4-----------------|
E|---------------------------------------------------------------------------|
 
   e  s s s s s s s s s s s s s s   e  s s s s s s s s s s s s s s s

e|---------------------------------------------------------------------------|
B|---------------------------------------------------------------------------|
G|-6----------------------6-6-6-6---2----------------------------------------|
D|-6----------------------6-6-6-6---2----------------------------------------|
A|-4--4-4-4-4-4-4-4-4-4-4-4-4-------0--0-0-0-0-0-0-0-0-0-0-0-0-0-0-----------|
E|---------------------------------------------------------------------------|

   e  s s s s s s s s s s s s s s         

e|---------------------------------------------------------------------------|
B|----------------------------------------8----------------------------------|
G|-4--------------------------------8---------8------------------------------|
D|-4--------------------------------8----------------------------------------|
A|-2--2-2-2-2-2-2-2-2-2-2-2-2-2-2---6----------------------------------------|
E|---------------------------------------------------------------------------|

CHORUS

   e  s e  s e  s e  s s s s s  e  s e  s e  s s s  q

e|---------------------------------------------------------------------------|
B|---------------------------------------------------------------------------|
G|---------------------------------------------------------------------------|
D|---------------------------------------------------------------------------|
A|-7--7-7--7-7--7-7-------------7--7-7--7-7--7-7---/8------------------------|
E|-0--0-0--0-0--0-0--0-1-1-1-1--0--0-0--0-0--0-0-0---------------------------|

   e  s e  s e  s e  s s s s s  E   E   E   E   e  e 

e|---------------------------------------------------------------------------|
B|---------------------------------------------------------------------------|
G|---------------------------------------------------------------------------|
D|------------------------------9---8---7---6---5--4-------------------------|
A|-7--7-7--7-7--7-7-------------7---6---5---4---3--2-------------------------|
E|-0--0-0--0-0--0-0--0-1-1-1-1-----------------------------------------------|

PLAY TWICE


PRE-SOLO
 
   q    q     q    E   E   e  E   E    e      

e|---------------------------------------------------------------------------|
B|---------------------------------------------------------------------------|
G|-9----------11-------------------------------------------------------------|
D|-9----9-----11---6---7---8--12---13--14------------------------------------|
A|-7----9-----9----4---5---6--10---11--12------------------------------------|
E|------7--------------------------------------------------------------------|

   q    q     q    E    E    e   E    E    e      

e|---------------------------------------------------------------------------|
B|---------------------------------------------------------------------------|
G|-9----------11--14---13---12--11---10---9----------------------------------|
D|-9----9-----11--14---13---12--11---10---9----------------------------------|
A|-7----9-----9--------------------------------------------------------------|
E|------7--------------------------------------------------------------------|


SOLO RIFF A


   s s s s s s s s s s s s s s s s 
e|---------------------------------------------------------------------------|
B|---------------------------------------------------------------------------|
G|---------------------------------------------------------------------------|
D|---------------------------------------------------------------------------|
A|-5-5-5-5-5-5-5-5-5-5-5-5-5-5-5-5-------------------------------------------|
E|---------------------------------------------------------------------------|

SOLO RIFF B

   W         W         W        W
e|---------------------------------------------------------------------------|
B|---------------------------------------------------------------------------|
G|-11--------11--------9--------9--------------------------------------------|
D|-11--------11--------9--------9--------------------------------------------|
A|-9---------9---------7--------7--------------------------------------------|
E|---------------------------------------------------------------------------|


ENDING



   E   E   E   E   e  e  E   E   E   E   e  e   

e|------------------------------------------------|
B|------------------------------------------------|
G|------------------------------------------------|
D|--9---8---7---6---5--4--------------------------|
A|--7---6---5---4---3--2--8---7---6---5---4--3----|
E|------------------------6---5---4---3---2--1----|

   E   E   E   E   e  e 

e|------------------------------------------------|
B|------------------------------------------------|
G|------------------------------------------------|
D|-9---8---7---6---5--4---6-----------------------|
A|-7---6---5---4---3--2---4-----------------------|
E|------------------------------------------------|


Добавлено: 09.06.2012
Другие материалы по этой песне:
  • Аккорды и текст

Страница создана 09.06.2012
http://primanota.ru/luzbel/pasaporte-al-infierno-chords.htm
Привет, Гость.
Предлагаем пройти революционный курс по гитаре.
Подарок от PrimaNota.Ru, забирай!